ISO-10303-21;
HEADER;
/****************************************************************
 * Generated by software with PDE/Lib inside                    *
 * PDElib Version v51a, created Thu 01/14/2010                  *
 * ITI Transcendata (http://www.transcendata.com/)              *
 ****************************************************************/
FILE_DESCRIPTION((''),'2;1');
FILE_NAME('M:\\Inventor Inhaltscenter\\Standardrohre\\4010014015818 Rohr300x1 l=2000mm.stp','2011-08-19T10:07:29',('mbarth'),(''),'Autodesk Inventor 2011','Autodesk Inventor 2011','');
FILE_SCHEMA(('AUTOMOTIVE_DESIGN { 1 0 10303 214 1 1 1 1 }'));
ENDSEC;
DATA;
#5=APPLICATION_CONTEXT('automotive design');
#6=APPLICATION_PROTOCOL_DEFINITION('International Standard','automotive_design',2001,#5);
#7=PRODUCT_CONTEXT('',#5,'mechanical');
#8=PRODUCT('4010014015818 Rohr300x1 l=2000mm','4010014015818 Rohr300x1 l=2000mm',$,(#7));
#9=PRODUCT_RELATED_PRODUCT_CATEGORY('part',$,(#8));
#10=PRODUCT_DEFINITION_FORMATION('',$,#8);
#11=PRODUCT_DEFINITION_CONTEXT('part definition',#5,'design');
#12=PRODUCT_DEFINITION('',$,#10,#11);
#18=(NAMED_UNIT(*)PLANE_ANGLE_UNIT()SI_UNIT($,.RADIAN.));
#19=DIMENSIONAL_EXPONENTS(0.0,0.0,0.0,0.0,0.0,0.0,0.0);
#20=PLANE_ANGLE_MEASURE_WITH_UNIT(PLANE_ANGLE_MEASURE(0.017453292500000),#18);
#24=(CONVERSION_BASED_UNIT('DEGREE',#20)NAMED_UNIT(#19)PLANE_ANGLE_UNIT());
#28=(NAMED_UNIT(*)SI_UNIT($,.STERADIAN.)SOLID_ANGLE_UNIT());
#32=(LENGTH_UNIT()NAMED_UNIT(*)SI_UNIT(.MILLI.,.METRE.));
#34=UNCERTAINTY_MEASURE_WITH_UNIT(LENGTH_MEASURE(0.010000000000000),#32,'DISTANCE_ACCURACY_VALUE','');
#36=(GEOMETRIC_REPRESENTATION_CONTEXT(3)GLOBAL_UNCERTAINTY_ASSIGNED_CONTEXT((#34))GLOBAL_UNIT_ASSIGNED_CONTEXT((#24,#28,#32))REPRESENTATION_CONTEXT('None','None'));
#37=AXIS2_PLACEMENT_3D('',#38,#39,#40);
#38=CARTESIAN_POINT('',(0.0,0.0,0.0));
#39=DIRECTION('',(0.0,0.0,1.0));
#40=DIRECTION('',(1.0,0.0,0.0));
#41=SHAPE_REPRESENTATION('',(#37),#36);
#42=PRODUCT_DEFINITION_SHAPE('','',#12);
#43=SHAPE_DEFINITION_REPRESENTATION(#42,#41);
#49=(NAMED_UNIT(*)PLANE_ANGLE_UNIT()SI_UNIT($,.RADIAN.));
#50=DIMENSIONAL_EXPONENTS(0.0,0.0,0.0,0.0,0.0,0.0,0.0);
#51=PLANE_ANGLE_MEASURE_WITH_UNIT(PLANE_ANGLE_MEASURE(0.017453292500000),#49);
#55=(CONVERSION_BASED_UNIT('DEGREE',#51)NAMED_UNIT(#50)PLANE_ANGLE_UNIT());
#59=(NAMED_UNIT(*)SI_UNIT($,.STERADIAN.)SOLID_ANGLE_UNIT());
#63=(LENGTH_UNIT()NAMED_UNIT(*)SI_UNIT(.MILLI.,.METRE.));
#65=UNCERTAINTY_MEASURE_WITH_UNIT(LENGTH_MEASURE(0.000001000000000),#63,'DISTANCE_ACCURACY_VALUE','');
#67=(GEOMETRIC_REPRESENTATION_CONTEXT(3)GLOBAL_UNCERTAINTY_ASSIGNED_CONTEXT((#65))GLOBAL_UNIT_ASSIGNED_CONTEXT((#55,#59,#63))REPRESENTATION_CONTEXT('','3D'));
#68=CARTESIAN_POINT('',(0.0,0.0,0.0));
#69=DIRECTION('',(0.0,0.0,1.0));
#70=DIRECTION('',(1.0,0.0,0.0));
#71=AXIS2_PLACEMENT_3D('',#68,#69,#70);
#72=CYLINDRICAL_SURFACE('',#71,157.0);
#73=CARTESIAN_POINT('',(-157.0,1.922695E-014,1.0));
#74=VERTEX_POINT('',#73);
#75=CARTESIAN_POINT('',(0.0,0.0,1.0));
#76=DIRECTION('',(0.0,0.0,-1.0));
#77=DIRECTION('',(1.0,0.0,0.0));
#78=AXIS2_PLACEMENT_3D('',#75,#76,#77);
#79=CIRCLE('',#78,157.0);
#80=EDGE_CURVE('',#74,#74,#79,.T.);
#81=ORIENTED_EDGE('',*,*,#80,.T.);
#82=EDGE_LOOP('',(#81));
#83=FACE_OUTER_BOUND('',#82,.T.);
#84=CARTESIAN_POINT('',(-157.0,1.922695E-014,0.0));
#85=VERTEX_POINT('',#84);
#86=CARTESIAN_POINT('',(0.0,0.0,0.0));
#87=DIRECTION('',(0.0,0.0,1.0));
#88=DIRECTION('',(1.0,0.0,0.0));
#89=AXIS2_PLACEMENT_3D('',#86,#87,#88);
#90=CIRCLE('',#89,157.0);
#91=EDGE_CURVE('',#85,#85,#90,.T.);
#92=ORIENTED_EDGE('',*,*,#91,.T.);
#93=EDGE_LOOP('',(#92));
#94=FACE_BOUND('',#93,.T.);
#95=ADVANCED_FACE('',(#83,#94),#72,.T.);
#96=CARTESIAN_POINT('',(0.0,0.0,1.0));
#97=DIRECTION('',(0.0,0.0,1.0));
#98=DIRECTION('',(1.0,0.0,0.0));
#99=AXIS2_PLACEMENT_3D('',#96,#97,#98);
#100=PLANE('',#99);
#101=ORIENTED_EDGE('',*,*,#80,.F.);
#102=EDGE_LOOP('',(#101));
#103=FACE_OUTER_BOUND('',#102,.T.);
#104=CARTESIAN_POINT('',(-151.0,1.849217E-014,1.0));
#105=VERTEX_POINT('',#104);
#106=CARTESIAN_POINT('',(0.0,0.0,1.0));
#107=DIRECTION('',(0.0,0.0,1.0));
#108=DIRECTION('',(-1.0,0.0,0.0));
#109=AXIS2_PLACEMENT_3D('',#106,#107,#108);
#110=CIRCLE('',#109,151.0);
#111=EDGE_CURVE('',#105,#105,#110,.T.);
#112=ORIENTED_EDGE('',*,*,#111,.F.);
#113=EDGE_LOOP('',(#112));
#114=FACE_BOUND('',#113,.T.);
#115=ADVANCED_FACE('',(#103,#114),#100,.T.);
#116=CARTESIAN_POINT('',(0.0,0.0,2000.0));
#117=DIRECTION('',(0.0,0.0,-1.0));
#118=DIRECTION('',(-1.0,0.0,0.0));
#119=AXIS2_PLACEMENT_3D('',#116,#117,#118);
#120=CYLINDRICAL_SURFACE('',#119,157.0);
#121=CARTESIAN_POINT('',(157.0,1.922695E-014,1999.0));
#122=VERTEX_POINT('',#121);
#123=CARTESIAN_POINT('',(0.0,0.0,1999.0));
#124=DIRECTION('',(0.0,0.0,1.0));
#125=DIRECTION('',(-1.0,0.0,0.0));
#126=AXIS2_PLACEMENT_3D('',#123,#124,#125);
#127=CIRCLE('',#126,157.0);
#128=EDGE_CURVE('',#122,#122,#127,.T.);
#129=ORIENTED_EDGE('',*,*,#128,.T.);
#130=EDGE_LOOP('',(#129));
#131=FACE_OUTER_BOUND('',#130,.T.);
#132=CARTESIAN_POINT('',(157.0,1.922695E-014,2000.0));
#133=VERTEX_POINT('',#132);
#134=CARTESIAN_POINT('',(0.0,0.0,2000.0));
#135=DIRECTION('',(0.0,0.0,-1.0));
#136=DIRECTION('',(-1.0,0.0,0.0));
#137=AXIS2_PLACEMENT_3D('',#134,#135,#136);
#138=CIRCLE('',#137,157.0);
#139=EDGE_CURVE('',#133,#133,#138,.T.);
#140=ORIENTED_EDGE('',*,*,#139,.T.);
#141=EDGE_LOOP('',(#140));
#142=FACE_BOUND('',#141,.T.);
#143=ADVANCED_FACE('',(#131,#142),#120,.T.);
#144=CARTESIAN_POINT('',(0.0,0.0,1999.0));
#145=DIRECTION('',(0.0,0.0,-1.0));
#146=DIRECTION('',(-1.0,0.0,0.0));
#147=AXIS2_PLACEMENT_3D('',#144,#145,#146);
#148=PLANE('',#147);
#149=ORIENTED_EDGE('',*,*,#128,.F.);
#150=EDGE_LOOP('',(#149));
#151=FACE_OUTER_BOUND('',#150,.T.);
#152=CARTESIAN_POINT('',(151.0,1.849217E-014,1999.0));
#153=VERTEX_POINT('',#152);
#154=CARTESIAN_POINT('',(0.0,0.0,1999.0));
#155=DIRECTION('',(0.0,0.0,-1.0));
#156=DIRECTION('',(-1.0,0.0,0.0));
#157=AXIS2_PLACEMENT_3D('',#154,#155,#156);
#158=CIRCLE('',#157,151.0);
#159=EDGE_CURVE('',#153,#153,#158,.T.);
#160=ORIENTED_EDGE('',*,*,#159,.F.);
#161=EDGE_LOOP('',(#160));
#162=FACE_BOUND('',#161,.T.);
#163=ADVANCED_FACE('',(#151,#162),#148,.T.);
#164=CARTESIAN_POINT('',(0.0,0.0,0.0));
#165=DIRECTION('',(0.0,0.0,1.0));
#166=DIRECTION('',(-1.0,0.0,0.0));
#167=AXIS2_PLACEMENT_3D('',#164,#165,#166);
#168=CYLINDRICAL_SURFACE('',#167,150.000000000000030);
#169=CARTESIAN_POINT('',(150.000000000000030,1.836970E-014,2000.0));
#170=VERTEX_POINT('',#169);
#171=CARTESIAN_POINT('',(0.0,0.0,2000.0));
#172=DIRECTION('',(0.0,0.0,-1.0));
#173=DIRECTION('',(-1.0,0.0,0.0));
#174=AXIS2_PLACEMENT_3D('',#171,#172,#173);
#175=CIRCLE('',#174,150.000000000000030);
#176=EDGE_CURVE('',#170,#170,#175,.T.);
#177=ORIENTED_EDGE('',*,*,#176,.F.);
#178=EDGE_LOOP('',(#177));
#179=FACE_OUTER_BOUND('',#178,.T.);
#180=CARTESIAN_POINT('',(150.000000000000030,1.836970E-014,0.0));
#181=VERTEX_POINT('',#180);
#182=CARTESIAN_POINT('',(0.0,0.0,0.0));
#183=DIRECTION('',(0.0,0.0,1.0));
#184=DIRECTION('',(-1.0,0.0,0.0));
#185=AXIS2_PLACEMENT_3D('',#182,#183,#184);
#186=CIRCLE('',#185,150.000000000000030);
#187=EDGE_CURVE('',#181,#181,#186,.T.);
#188=ORIENTED_EDGE('',*,*,#187,.F.);
#189=EDGE_LOOP('',(#188));
#190=FACE_BOUND('',#189,.T.);
#191=ADVANCED_FACE('',(#179,#190),#168,.F.);
#192=CARTESIAN_POINT('',(0.0,0.0,0.0));
#193=DIRECTION('',(0.0,0.0,1.0));
#194=DIRECTION('',(-1.0,0.0,0.0));
#195=AXIS2_PLACEMENT_3D('',#192,#193,#194);
#196=CYLINDRICAL_SURFACE('',#195,151.0);
#197=ORIENTED_EDGE('',*,*,#111,.T.);
#198=EDGE_LOOP('',(#197));
#199=FACE_OUTER_BOUND('',#198,.T.);
#200=ORIENTED_EDGE('',*,*,#159,.T.);
#201=EDGE_LOOP('',(#200));
#202=FACE_BOUND('',#201,.T.);
#203=ADVANCED_FACE('',(#199,#202),#196,.T.);
#204=CARTESIAN_POINT('',(0.0,0.0,2000.0));
#205=DIRECTION('',(0.0,0.0,-1.0));
#206=DIRECTION('',(-1.0,0.0,0.0));
#207=AXIS2_PLACEMENT_3D('',#204,#205,#206);
#208=PLANE('',#207);
#209=ORIENTED_EDGE('',*,*,#139,.F.);
#210=EDGE_LOOP('',(#209));
#211=FACE_OUTER_BOUND('',#210,.T.);
#212=ORIENTED_EDGE('',*,*,#176,.T.);
#213=EDGE_LOOP('',(#212));
#214=FACE_BOUND('',#213,.T.);
#215=ADVANCED_FACE('',(#211,#214),#208,.F.);
#216=CARTESIAN_POINT('',(0.0,0.0,0.0));
#217=DIRECTION('',(0.0,0.0,-1.0));
#218=DIRECTION('',(-1.0,0.0,0.0));
#219=AXIS2_PLACEMENT_3D('',#216,#217,#218);
#220=PLANE('',#219);
#221=ORIENTED_EDGE('',*,*,#91,.F.);
#222=EDGE_LOOP('',(#221));
#223=FACE_OUTER_BOUND('',#222,.T.);
#224=ORIENTED_EDGE('',*,*,#187,.T.);
#225=EDGE_LOOP('',(#224));
#226=FACE_BOUND('',#225,.T.);
#227=ADVANCED_FACE('',(#223,#226),#220,.T.);
#228=CLOSED_SHELL('',(#95,#115,#143,#163,#191,#203,#215,#227));
#229=MANIFOLD_SOLID_BREP('Volumenk\S\vrper1',#228);
#230=COLOUR_RGB('Metall - Stahl',0.639216005802155,0.639216005802155,0.686275005340576);
#231=FILL_AREA_STYLE_COLOUR('Metall - Stahl',#230);
#232=FILL_AREA_STYLE('Metall - Stahl',(#231));
#233=SURFACE_STYLE_FILL_AREA(#232);
#234=SURFACE_SIDE_STYLE('Metall - Stahl',(#233));
#235=SURFACE_STYLE_USAGE(.BOTH.,#234);
#236=PRESENTATION_STYLE_ASSIGNMENT((#235));
#237=STYLED_ITEM('',(#236),#229);
#238=MECHANICAL_DESIGN_GEOMETRIC_PRESENTATION_REPRESENTATION('',(#237),#36);
#239=ADVANCED_BREP_SHAPE_REPRESENTATION('ABSR',(#229),#36);
#240=SHAPE_REPRESENTATION_RELATIONSHIP('SRR','None',#239,#41);
ENDSEC;
END-ISO-10303-21;
