ISO-10303-21;
HEADER;
/* Generated by software containing ST-Developer
 * from STEP Tools, Inc. (www.steptools.com) 
 */

FILE_DESCRIPTION(
/* description */ (''),
/* implementation_level */ '2;1');

FILE_NAME(
/* name */ 
'E:\\Detail STEPs\\Segmente Gerade\\4010015015785-\X\D8175x2 45\X\B0.s
tp',
/* time_stamp */ '2016-04-07T05:54:31+02:00',
/* author */ ('dpurucker'),
/* organization */ (''),
/* preprocessor_version */ 'ST-DEVELOPER v16.1',
/* originating_system */ 'Autodesk Inventor 2016',
/* authorisation */ '');

FILE_SCHEMA (('AUTOMOTIVE_DESIGN { 1 0 10303 214 3 1 1 }'));
ENDSEC;

DATA;
#10=MECHANICAL_DESIGN_GEOMETRIC_PRESENTATION_REPRESENTATION('',(#124,#132,
#126,#125,#127,#133,#134,#129,#128,#131,#130),#253);
#11=SHAPE_REPRESENTATION_RELATIONSHIP('SRR','None',#262,#12);
#12=ADVANCED_BREP_SHAPE_REPRESENTATION('',(#13),#252);
#13=MANIFOLD_SOLID_BREP('Volumenk\X\F6rper2',#145);
#14=ELLIPSE('',#153,94.1681214254383,87.);
#15=ELLIPSE('',#154,94.1681214254383,87.);
#16=ELLIPSE('',#157,96.3329058260231,89.);
#17=ELLIPSE('',#158,96.3329058260231,89.);
#18=PLANE('',#150);
#19=PLANE('',#159);
#20=PLANE('',#163);
#21=PLANE('',#168);
#22=FACE_BOUND('',#43,.T.);
#23=FACE_BOUND('',#45,.T.);
#24=FACE_BOUND('',#47,.T.);
#25=FACE_BOUND('',#49,.T.);
#26=FACE_BOUND('',#51,.T.);
#27=FACE_BOUND('',#53,.T.);
#28=FACE_BOUND('',#55,.T.);
#29=FACE_BOUND('',#57,.T.);
#30=FACE_BOUND('',#59,.T.);
#31=FACE_BOUND('',#61,.T.);
#32=FACE_OUTER_BOUND('',#42,.T.);
#33=FACE_OUTER_BOUND('',#44,.T.);
#34=FACE_OUTER_BOUND('',#46,.T.);
#35=FACE_OUTER_BOUND('',#48,.T.);
#36=FACE_OUTER_BOUND('',#50,.T.);
#37=FACE_OUTER_BOUND('',#52,.T.);
#38=FACE_OUTER_BOUND('',#54,.T.);
#39=FACE_OUTER_BOUND('',#56,.T.);
#40=FACE_OUTER_BOUND('',#58,.T.);
#41=FACE_OUTER_BOUND('',#60,.T.);
#42=EDGE_LOOP('',(#94));
#43=EDGE_LOOP('',(#95));
#44=EDGE_LOOP('',(#96));
#45=EDGE_LOOP('',(#97));
#46=EDGE_LOOP('',(#98,#99));
#47=EDGE_LOOP('',(#100));
#48=EDGE_LOOP('',(#101));
#49=EDGE_LOOP('',(#102,#103));
#50=EDGE_LOOP('',(#104));
#51=EDGE_LOOP('',(#105));
#52=EDGE_LOOP('',(#106));
#53=EDGE_LOOP('',(#107));
#54=EDGE_LOOP('',(#108));
#55=EDGE_LOOP('',(#109));
#56=EDGE_LOOP('',(#110,#111));
#57=EDGE_LOOP('',(#112));
#58=EDGE_LOOP('',(#113));
#59=EDGE_LOOP('',(#114,#115));
#60=EDGE_LOOP('',(#116));
#61=EDGE_LOOP('',(#117));
#62=CIRCLE('',#148,95.);
#63=CIRCLE('',#149,95.);
#64=CIRCLE('',#151,89.);
#65=CIRCLE('',#155,87.);
#66=CIRCLE('',#161,95.);
#67=CIRCLE('',#162,95.);
#68=CIRCLE('',#164,89.);
#69=CIRCLE('',#166,87.);
#70=VERTEX_POINT('',#217);
#71=VERTEX_POINT('',#219);
#72=VERTEX_POINT('',#222);
#73=VERTEX_POINT('',#225);
#74=VERTEX_POINT('',#226);
#75=VERTEX_POINT('',#229);
#76=VERTEX_POINT('',#232);
#77=VERTEX_POINT('',#233);
#78=VERTEX_POINT('',#238);
#79=VERTEX_POINT('',#240);
#80=VERTEX_POINT('',#243);
#81=VERTEX_POINT('',#246);
#82=EDGE_CURVE('',#70,#70,#62,.T.);
#83=EDGE_CURVE('',#71,#71,#63,.T.);
#84=EDGE_CURVE('',#72,#72,#64,.T.);
#85=EDGE_CURVE('',#73,#74,#14,.T.);
#86=EDGE_CURVE('',#74,#73,#15,.T.);
#87=EDGE_CURVE('',#75,#75,#65,.T.);
#88=EDGE_CURVE('',#76,#77,#16,.T.);
#89=EDGE_CURVE('',#77,#76,#17,.T.);
#90=EDGE_CURVE('',#78,#78,#66,.T.);
#91=EDGE_CURVE('',#79,#79,#67,.T.);
#92=EDGE_CURVE('',#80,#80,#68,.T.);
#93=EDGE_CURVE('',#81,#81,#69,.T.);
#94=ORIENTED_EDGE('',*,*,#82,.F.);
#95=ORIENTED_EDGE('',*,*,#83,.F.);
#96=ORIENTED_EDGE('',*,*,#82,.T.);
#97=ORIENTED_EDGE('',*,*,#84,.T.);
#98=ORIENTED_EDGE('',*,*,#85,.F.);
#99=ORIENTED_EDGE('',*,*,#86,.F.);
#100=ORIENTED_EDGE('',*,*,#87,.T.);
#101=ORIENTED_EDGE('',*,*,#84,.F.);
#102=ORIENTED_EDGE('',*,*,#88,.F.);
#103=ORIENTED_EDGE('',*,*,#89,.F.);
#104=ORIENTED_EDGE('',*,*,#83,.T.);
#105=ORIENTED_EDGE('',*,*,#87,.F.);
#106=ORIENTED_EDGE('',*,*,#90,.T.);
#107=ORIENTED_EDGE('',*,*,#91,.T.);
#108=ORIENTED_EDGE('',*,*,#90,.F.);
#109=ORIENTED_EDGE('',*,*,#92,.F.);
#110=ORIENTED_EDGE('',*,*,#85,.T.);
#111=ORIENTED_EDGE('',*,*,#86,.T.);
#112=ORIENTED_EDGE('',*,*,#93,.F.);
#113=ORIENTED_EDGE('',*,*,#92,.T.);
#114=ORIENTED_EDGE('',*,*,#88,.T.);
#115=ORIENTED_EDGE('',*,*,#89,.T.);
#116=ORIENTED_EDGE('',*,*,#91,.F.);
#117=ORIENTED_EDGE('',*,*,#93,.T.);
#118=CYLINDRICAL_SURFACE('',#147,95.);
#119=CYLINDRICAL_SURFACE('',#152,87.);
#120=CYLINDRICAL_SURFACE('',#156,89.);
#121=CYLINDRICAL_SURFACE('',#160,95.);
#122=CYLINDRICAL_SURFACE('',#165,87.);
#123=CYLINDRICAL_SURFACE('',#167,89.);
#124=STYLED_ITEM('',(#272),#135);
#125=STYLED_ITEM('',(#272),#136);
#126=STYLED_ITEM('',(#272),#137);
#127=STYLED_ITEM('',(#272),#138);
#128=STYLED_ITEM('',(#272),#139);
#129=STYLED_ITEM('',(#272),#140);
#130=STYLED_ITEM('',(#272),#141);
#131=STYLED_ITEM('',(#272),#142);
#132=STYLED_ITEM('',(#272),#143);
#133=STYLED_ITEM('',(#272),#144);
#134=STYLED_ITEM('',(#271),#13);
#135=ADVANCED_FACE('',(#32,#22),#118,.T.);
#136=ADVANCED_FACE('',(#33,#23),#18,.F.);
#137=ADVANCED_FACE('',(#34,#24),#119,.F.);
#138=ADVANCED_FACE('',(#35,#25),#120,.T.);
#139=ADVANCED_FACE('',(#36,#26),#19,.F.);
#140=ADVANCED_FACE('',(#37,#27),#121,.T.);
#141=ADVANCED_FACE('',(#38,#28),#20,.T.);
#142=ADVANCED_FACE('',(#39,#29),#122,.F.);
#143=ADVANCED_FACE('',(#40,#30),#123,.T.);
#144=ADVANCED_FACE('',(#41,#31),#21,.T.);
#145=CLOSED_SHELL('',(#135,#136,#137,#138,#139,#140,#141,#142,#143,#144));
#146=AXIS2_PLACEMENT_3D('placement',#215,#169,#170);
#147=AXIS2_PLACEMENT_3D('',#216,#171,#172);
#148=AXIS2_PLACEMENT_3D('',#218,#173,#174);
#149=AXIS2_PLACEMENT_3D('',#220,#175,#176);
#150=AXIS2_PLACEMENT_3D('',#221,#177,#178);
#151=AXIS2_PLACEMENT_3D('',#223,#179,#180);
#152=AXIS2_PLACEMENT_3D('',#224,#181,#182);
#153=AXIS2_PLACEMENT_3D('',#227,#183,#184);
#154=AXIS2_PLACEMENT_3D('',#228,#185,#186);
#155=AXIS2_PLACEMENT_3D('',#230,#187,#188);
#156=AXIS2_PLACEMENT_3D('',#231,#189,#190);
#157=AXIS2_PLACEMENT_3D('',#234,#191,#192);
#158=AXIS2_PLACEMENT_3D('',#235,#193,#194);
#159=AXIS2_PLACEMENT_3D('',#236,#195,#196);
#160=AXIS2_PLACEMENT_3D('',#237,#197,#198);
#161=AXIS2_PLACEMENT_3D('',#239,#199,#200);
#162=AXIS2_PLACEMENT_3D('',#241,#201,#202);
#163=AXIS2_PLACEMENT_3D('',#242,#203,#204);
#164=AXIS2_PLACEMENT_3D('',#244,#205,#206);
#165=AXIS2_PLACEMENT_3D('',#245,#207,#208);
#166=AXIS2_PLACEMENT_3D('',#247,#209,#210);
#167=AXIS2_PLACEMENT_3D('',#248,#211,#212);
#168=AXIS2_PLACEMENT_3D('',#249,#213,#214);
#169=DIRECTION('axis',(0.,0.,1.));
#170=DIRECTION('refdir',(1.,0.,0.));
#171=DIRECTION('center_axis',(0.,0.707106781186547,0.707106781186548));
#172=DIRECTION('ref_axis',(-1.,0.,0.));
#173=DIRECTION('center_axis',(0.,-0.707106781186547,-0.707106781186548));
#174=DIRECTION('ref_axis',(-1.,0.,0.));
#175=DIRECTION('center_axis',(0.,0.707106781186547,0.707106781186548));
#176=DIRECTION('ref_axis',(-1.,0.,0.));
#177=DIRECTION('center_axis',(0.,0.707106781186547,0.707106781186548));
#178=DIRECTION('ref_axis',(0.,-0.707106781186548,0.707106781186548));
#179=DIRECTION('center_axis',(0.,0.707106781186547,0.707106781186548));
#180=DIRECTION('ref_axis',(1.,0.,0.));
#181=DIRECTION('center_axis',(0.,0.707106781186547,0.707106781186548));
#182=DIRECTION('ref_axis',(1.,0.,0.));
#183=DIRECTION('center_axis',(0.,0.923879532511287,0.38268343236509));
#184=DIRECTION('ref_axis',(0.,0.38268343236509,-0.923879532511287));
#185=DIRECTION('center_axis',(0.,0.923879532511287,0.38268343236509));
#186=DIRECTION('ref_axis',(0.,0.38268343236509,-0.923879532511287));
#187=DIRECTION('center_axis',(0.,0.707106781186547,0.707106781186548));
#188=DIRECTION('ref_axis',(1.,0.,0.));
#189=DIRECTION('center_axis',(0.,0.707106781186547,0.707106781186548));
#190=DIRECTION('ref_axis',(1.,0.,0.));
#191=DIRECTION('center_axis',(0.,-0.923879532511287,-0.38268343236509));
#192=DIRECTION('ref_axis',(0.,0.38268343236509,-0.923879532511287));
#193=DIRECTION('center_axis',(0.,-0.923879532511287,-0.38268343236509));
#194=DIRECTION('ref_axis',(0.,0.38268343236509,-0.923879532511287));
#195=DIRECTION('center_axis',(0.,-0.707106781186547,-0.707106781186548));
#196=DIRECTION('ref_axis',(0.,0.707106781186548,-0.707106781186548));
#197=DIRECTION('center_axis',(0.,1.,0.));
#198=DIRECTION('ref_axis',(-1.,0.,0.));
#199=DIRECTION('center_axis',(0.,-1.,0.));
#200=DIRECTION('ref_axis',(-1.,0.,0.));
#201=DIRECTION('center_axis',(0.,1.,0.));
#202=DIRECTION('ref_axis',(-1.,0.,0.));
#203=DIRECTION('center_axis',(0.,1.,0.));
#204=DIRECTION('ref_axis',(0.,0.,1.));
#205=DIRECTION('center_axis',(0.,1.,0.));
#206=DIRECTION('ref_axis',(1.,0.,0.));
#207=DIRECTION('center_axis',(0.,1.,0.));
#208=DIRECTION('ref_axis',(1.,0.,0.));
#209=DIRECTION('center_axis',(0.,1.,0.));
#210=DIRECTION('ref_axis',(1.,0.,0.));
#211=DIRECTION('center_axis',(0.,1.,0.));
#212=DIRECTION('ref_axis',(1.,0.,0.));
#213=DIRECTION('center_axis',(0.,-1.,0.));
#214=DIRECTION('ref_axis',(0.,0.,-1.));
#215=CARTESIAN_POINT('',(0.,0.,0.));
#216=CARTESIAN_POINT('Origin',(0.,113.844191771034,-113.844191771034));
#217=CARTESIAN_POINT('',(95.,112.429978208661,-115.258405333407));
#218=CARTESIAN_POINT('Origin',(0.,112.429978208661,-115.258405333407));
#219=CARTESIAN_POINT('',(95.,113.844191771034,-113.844191771034));
#220=CARTESIAN_POINT('Origin',(0.,113.844191771034,-113.844191771034));
#221=CARTESIAN_POINT('Origin',(0.,112.429978208661,-115.258405333407));
#222=CARTESIAN_POINT('',(89.,112.429978208661,-115.258405333407));
#223=CARTESIAN_POINT('Origin',(0.,112.429978208661,-115.258405333407));
#224=CARTESIAN_POINT('Origin',(0.,113.844191771034,-113.844191771034));
#225=CARTESIAN_POINT('',(-87.,66.6883835420684,-161.));
#226=CARTESIAN_POINT('',(87.,66.6883835420684,-161.));
#227=CARTESIAN_POINT('Origin',(0.,66.6883835420683,-161.));
#228=CARTESIAN_POINT('Origin',(0.,66.6883835420683,-161.));
#229=CARTESIAN_POINT('',(-87.,113.844191771034,-113.844191771034));
#230=CARTESIAN_POINT('Origin',(0.,113.844191771034,-113.844191771034));
#231=CARTESIAN_POINT('Origin',(0.,113.844191771034,-113.844191771034));
#232=CARTESIAN_POINT('',(89.,66.6883835420684,-161.));
#233=CARTESIAN_POINT('',(-89.,66.6883835420684,-161.));
#234=CARTESIAN_POINT('Origin',(0.,66.6883835420683,-161.));
#235=CARTESIAN_POINT('Origin',(0.,66.6883835420683,-161.));
#236=CARTESIAN_POINT('Origin',(0.,113.844191771034,-113.844191771034));
#237=CARTESIAN_POINT('Origin',(0.,0.,-161.));
#238=CARTESIAN_POINT('',(95.,2.,-161.));
#239=CARTESIAN_POINT('Origin',(0.,2.,-161.));
#240=CARTESIAN_POINT('',(95.,0.,-161.));
#241=CARTESIAN_POINT('Origin',(0.,0.,-161.));
#242=CARTESIAN_POINT('Origin',(0.,2.,-161.));
#243=CARTESIAN_POINT('',(89.,2.,-161.));
#244=CARTESIAN_POINT('Origin',(0.,2.,-161.));
#245=CARTESIAN_POINT('Origin',(0.,0.,-161.));
#246=CARTESIAN_POINT('',(-87.,0.,-161.));
#247=CARTESIAN_POINT('Origin',(0.,0.,-161.));
#248=CARTESIAN_POINT('Origin',(0.,0.,-161.));
#249=CARTESIAN_POINT('Origin',(0.,0.,-161.));
#250=UNCERTAINTY_MEASURE_WITH_UNIT(LENGTH_MEASURE(0.01),#254,
'DISTANCE_ACCURACY_VALUE',
'Maximum model space distance between geometric entities at asserted c
onnectivities');
#251=UNCERTAINTY_MEASURE_WITH_UNIT(LENGTH_MEASURE(1.E-6),#254,
'DISTANCE_ACCURACY_VALUE',
'Maximum model space distance between geometric entities at asserted c
onnectivities');
#252=(
GEOMETRIC_REPRESENTATION_CONTEXT(3)
GLOBAL_UNCERTAINTY_ASSIGNED_CONTEXT((#250))
GLOBAL_UNIT_ASSIGNED_CONTEXT((#254,#257,#255))
REPRESENTATION_CONTEXT('','3D')
);
#253=(
GEOMETRIC_REPRESENTATION_CONTEXT(3)
GLOBAL_UNCERTAINTY_ASSIGNED_CONTEXT((#251))
GLOBAL_UNIT_ASSIGNED_CONTEXT((#254,#257,#255))
REPRESENTATION_CONTEXT('','3D')
);
#254=(
LENGTH_UNIT()
NAMED_UNIT(*)
SI_UNIT(.MILLI.,.METRE.)
);
#255=(
NAMED_UNIT(*)
SI_UNIT($,.STERADIAN.)
SOLID_ANGLE_UNIT()
);
#256=DIMENSIONAL_EXPONENTS(0.,0.,0.,0.,0.,0.,0.);
#257=(
CONVERSION_BASED_UNIT('degree',#259)
NAMED_UNIT(#256)
PLANE_ANGLE_UNIT()
);
#258=(
NAMED_UNIT(*)
PLANE_ANGLE_UNIT()
SI_UNIT($,.RADIAN.)
);
#259=PLANE_ANGLE_MEASURE_WITH_UNIT(PLANE_ANGLE_MEASURE(0.01745329252),#258);
#260=SHAPE_DEFINITION_REPRESENTATION(#261,#262);
#261=PRODUCT_DEFINITION_SHAPE('',$,#264);
#262=SHAPE_REPRESENTATION('',(#146),#252);
#263=PRODUCT_DEFINITION_CONTEXT('part definition',#268,'design');
#264=PRODUCT_DEFINITION(
'4010015015785-Segment gerade \X\D8175 45\X\B0 2mm 2-teilig',
'4010015015785-Segment gerade \X\D8175 45\X\B0 2mm 2-teilig',#265,#263);
#265=PRODUCT_DEFINITION_FORMATION('',$,#270);
#266=PRODUCT_RELATED_PRODUCT_CATEGORY(
'4010015015785-Segment gerade \X\D8175 45\X\B0 2mm 2-teilig',
'4010015015785-Segment gerade \X\D8175 45\X\B0 2mm 2-teilig',(#270));
#267=APPLICATION_PROTOCOL_DEFINITION('international standard',
'automotive_design',2009,#268);
#268=APPLICATION_CONTEXT(
'Core Data for Automotive Mechanical Design Process');
#269=PRODUCT_CONTEXT('part definition',#268,'mechanical');
#270=PRODUCT('4010015015785-Segment gerade \X\D8175 45\X\B0 2mm 2-teil
ig','4010015015785-Segment gerade \X\D8175 45\X\B0 2mm 2-teilig',$,(#269));
#271=PRESENTATION_STYLE_ASSIGNMENT((#273));
#272=PRESENTATION_STYLE_ASSIGNMENT((#274));
#273=SURFACE_STYLE_USAGE(.BOTH.,#275);
#274=SURFACE_STYLE_USAGE(.BOTH.,#276);
#275=SURFACE_SIDE_STYLE('',(#277));
#276=SURFACE_SIDE_STYLE('',(#278));
#277=SURFACE_STYLE_FILL_AREA(#279);
#278=SURFACE_STYLE_FILL_AREA(#280);
#279=FILL_AREA_STYLE('',(#281));
#280=FILL_AREA_STYLE('',(#282));
#281=FILL_AREA_STYLE_COLOUR('',#283);
#282=FILL_AREA_STYLE_COLOUR('',#284);
#283=COLOUR_RGB('',0.749019607843137,0.749019607843137,0.749019607843137);
#284=COLOUR_RGB('',0.745098039215686,0.737254901960784,0.729411764705882);
ENDSEC;
END-ISO-10303-21;
