ISO-10303-21;
HEADER;
/* Generated by software containing ST-Developer
 * from STEP Tools, Inc. (www.steptools.com) 
 */

FILE_DESCRIPTION(
/* description */ (''),
/* implementation_level */ '2;1');

FILE_NAME(
/* name */ 
'E:\\Detail STEPs\\\X\DCberg\X\E4nge\\4010023015753 - Rohr\X\FCbergang
 NW150 - NW175.stp',
/* time_stamp */ '2016-04-07T06:07:36+02:00',
/* author */ ('dpurucker'),
/* organization */ (''),
/* preprocessor_version */ 'ST-DEVELOPER v16.1',
/* originating_system */ 'Autodesk Inventor 2016',
/* authorisation */ '');

FILE_SCHEMA (('AUTOMOTIVE_DESIGN { 1 0 10303 214 3 1 1 }'));
ENDSEC;

DATA;
#10=MECHANICAL_DESIGN_GEOMETRIC_PRESENTATION_REPRESENTATION('',(#13),#183);
#11=SHAPE_REPRESENTATION_RELATIONSHIP('SRR','None',#192,#12);
#12=ADVANCED_BREP_SHAPE_REPRESENTATION('',(#14),#182);
#13=STYLED_ITEM('',(#201),#14);
#14=MANIFOLD_SOLID_BREP('Volumenk\X\F6rper1',#103);
#15=CONICAL_SURFACE('',#116,81.3940962141974,15.0463918321985);
#16=CONICAL_SURFACE('',#118,87.9326072891956,74.9536081678016);
#17=CONICAL_SURFACE('',#120,83.3255281070641,15.0463918321985);
#18=CYLINDRICAL_SURFACE('',#110,83.1086367643018);
#19=PLANE('',#108);
#20=PLANE('',#112);
#21=FACE_BOUND('',#38,.T.);
#22=FACE_BOUND('',#40,.T.);
#23=FACE_BOUND('',#42,.T.);
#24=FACE_BOUND('',#44,.T.);
#25=FACE_BOUND('',#46,.T.);
#26=FACE_BOUND('',#48,.T.);
#27=FACE_BOUND('',#50,.T.);
#28=FACE_BOUND('',#52,.T.);
#29=FACE_OUTER_BOUND('',#37,.T.);
#30=FACE_OUTER_BOUND('',#39,.T.);
#31=FACE_OUTER_BOUND('',#41,.T.);
#32=FACE_OUTER_BOUND('',#43,.T.);
#33=FACE_OUTER_BOUND('',#45,.T.);
#34=FACE_OUTER_BOUND('',#47,.T.);
#35=FACE_OUTER_BOUND('',#49,.T.);
#36=FACE_OUTER_BOUND('',#51,.T.);
#37=EDGE_LOOP('',(#77));
#38=EDGE_LOOP('',(#78));
#39=EDGE_LOOP('',(#79));
#40=EDGE_LOOP('',(#80));
#41=EDGE_LOOP('',(#81));
#42=EDGE_LOOP('',(#82));
#43=EDGE_LOOP('',(#83));
#44=EDGE_LOOP('',(#84));
#45=EDGE_LOOP('',(#85));
#46=EDGE_LOOP('',(#86));
#47=EDGE_LOOP('',(#87));
#48=EDGE_LOOP('',(#88));
#49=EDGE_LOOP('',(#89));
#50=EDGE_LOOP('',(#90));
#51=EDGE_LOOP('',(#91));
#52=EDGE_LOOP('',(#92));
#53=CIRCLE('',#106,77.7858416357368);
#54=CIRCLE('',#107,79.7172735286034);
#55=CIRCLE('',#109,83.1086367643018);
#56=CIRCLE('',#111,83.1086367643018);
#57=CIRCLE('',#113,79.7172735286034);
#58=CIRCLE('',#115,75.8544097428702);
#59=CIRCLE('',#117,86.9337826855247);
#60=CIRCLE('',#119,88.8652145783913);
#61=VERTEX_POINT('',#157);
#62=VERTEX_POINT('',#159);
#63=VERTEX_POINT('',#162);
#64=VERTEX_POINT('',#165);
#65=VERTEX_POINT('',#168);
#66=VERTEX_POINT('',#171);
#67=VERTEX_POINT('',#174);
#68=VERTEX_POINT('',#177);
#69=EDGE_CURVE('',#61,#61,#53,.T.);
#70=EDGE_CURVE('',#62,#62,#54,.T.);
#71=EDGE_CURVE('',#63,#63,#55,.T.);
#72=EDGE_CURVE('',#64,#64,#56,.T.);
#73=EDGE_CURVE('',#65,#65,#57,.T.);
#74=EDGE_CURVE('',#66,#66,#58,.T.);
#75=EDGE_CURVE('',#67,#67,#59,.T.);
#76=EDGE_CURVE('',#68,#68,#60,.T.);
#77=ORIENTED_EDGE('',*,*,#69,.T.);
#78=ORIENTED_EDGE('',*,*,#70,.F.);
#79=ORIENTED_EDGE('',*,*,#71,.F.);
#80=ORIENTED_EDGE('',*,*,#70,.T.);
#81=ORIENTED_EDGE('',*,*,#71,.T.);
#82=ORIENTED_EDGE('',*,*,#72,.F.);
#83=ORIENTED_EDGE('',*,*,#72,.T.);
#84=ORIENTED_EDGE('',*,*,#73,.F.);
#85=ORIENTED_EDGE('',*,*,#73,.T.);
#86=ORIENTED_EDGE('',*,*,#74,.F.);
#87=ORIENTED_EDGE('',*,*,#74,.T.);
#88=ORIENTED_EDGE('',*,*,#75,.F.);
#89=ORIENTED_EDGE('',*,*,#75,.T.);
#90=ORIENTED_EDGE('',*,*,#76,.F.);
#91=ORIENTED_EDGE('',*,*,#76,.T.);
#92=ORIENTED_EDGE('',*,*,#69,.F.);
#93=TOROIDAL_SURFACE('',#105,79.7172735286034,2.);
#94=TOROIDAL_SURFACE('',#114,79.7172735286034,4.);
#95=ADVANCED_FACE('',(#29,#21),#93,.F.);
#96=ADVANCED_FACE('',(#30,#22),#19,.T.);
#97=ADVANCED_FACE('',(#31,#23),#18,.T.);
#98=ADVANCED_FACE('',(#32,#24),#20,.T.);
#99=ADVANCED_FACE('',(#33,#25),#94,.T.);
#100=ADVANCED_FACE('',(#34,#26),#15,.F.);
#101=ADVANCED_FACE('',(#35,#27),#16,.T.);
#102=ADVANCED_FACE('',(#36,#28),#17,.T.);
#103=CLOSED_SHELL('',(#95,#96,#97,#98,#99,#100,#101,#102));
#104=AXIS2_PLACEMENT_3D('placement',#155,#121,#122);
#105=AXIS2_PLACEMENT_3D('',#156,#123,#124);
#106=AXIS2_PLACEMENT_3D('',#158,#125,#126);
#107=AXIS2_PLACEMENT_3D('',#160,#127,#128);
#108=AXIS2_PLACEMENT_3D('',#161,#129,#130);
#109=AXIS2_PLACEMENT_3D('',#163,#131,#132);
#110=AXIS2_PLACEMENT_3D('',#164,#133,#134);
#111=AXIS2_PLACEMENT_3D('',#166,#135,#136);
#112=AXIS2_PLACEMENT_3D('',#167,#137,#138);
#113=AXIS2_PLACEMENT_3D('',#169,#139,#140);
#114=AXIS2_PLACEMENT_3D('',#170,#141,#142);
#115=AXIS2_PLACEMENT_3D('',#172,#143,#144);
#116=AXIS2_PLACEMENT_3D('',#173,#145,#146);
#117=AXIS2_PLACEMENT_3D('',#175,#147,#148);
#118=AXIS2_PLACEMENT_3D('',#176,#149,#150);
#119=AXIS2_PLACEMENT_3D('',#178,#151,#152);
#120=AXIS2_PLACEMENT_3D('',#179,#153,#154);
#121=DIRECTION('axis',(0.,0.,1.));
#122=DIRECTION('refdir',(1.,0.,0.));
#123=DIRECTION('center_axis',(-1.,0.,0.));
#124=DIRECTION('ref_axis',(0.,0.,1.));
#125=DIRECTION('center_axis',(-1.,0.,0.));
#126=DIRECTION('ref_axis',(0.,0.,1.));
#127=DIRECTION('center_axis',(-1.,0.,0.));
#128=DIRECTION('ref_axis',(0.,0.,1.));
#129=DIRECTION('center_axis',(1.,0.,0.));
#130=DIRECTION('ref_axis',(0.,0.,-1.));
#131=DIRECTION('center_axis',(-1.,0.,0.));
#132=DIRECTION('ref_axis',(0.,0.,1.));
#133=DIRECTION('center_axis',(-1.,0.,0.));
#134=DIRECTION('ref_axis',(0.,-1.,0.));
#135=DIRECTION('center_axis',(-1.,0.,0.));
#136=DIRECTION('ref_axis',(0.,0.,1.));
#137=DIRECTION('center_axis',(-1.,0.,0.));
#138=DIRECTION('ref_axis',(0.,0.,1.));
#139=DIRECTION('center_axis',(-1.,0.,0.));
#140=DIRECTION('ref_axis',(0.,0.,1.));
#141=DIRECTION('center_axis',(-1.,0.,0.));
#142=DIRECTION('ref_axis',(0.,0.,1.));
#143=DIRECTION('center_axis',(-1.,0.,0.));
#144=DIRECTION('ref_axis',(0.,0.,1.));
#145=DIRECTION('center_axis',(1.,0.,0.));
#146=DIRECTION('ref_axis',(0.,-1.,0.));
#147=DIRECTION('center_axis',(-1.,0.,0.));
#148=DIRECTION('ref_axis',(0.,0.,1.));
#149=DIRECTION('center_axis',(-1.,0.,0.));
#150=DIRECTION('ref_axis',(0.,-1.,0.));
#151=DIRECTION('center_axis',(-1.,0.,0.));
#152=DIRECTION('ref_axis',(0.,0.,1.));
#153=DIRECTION('center_axis',(1.,0.,0.));
#154=DIRECTION('ref_axis',(0.,-1.,0.));
#155=CARTESIAN_POINT('',(0.,0.,0.));
#156=CARTESIAN_POINT('Origin',(-42.2358712367978,0.,0.));
#157=CARTESIAN_POINT('',(-41.7166691150594,-77.7858416357368,0.));
#158=CARTESIAN_POINT('Origin',(-41.7166691150594,0.,0.));
#159=CARTESIAN_POINT('',(-44.2358712367978,-79.7172735286034,0.));
#160=CARTESIAN_POINT('Origin',(-44.2358712367978,0.,0.));
#161=CARTESIAN_POINT('Origin',(-44.2358712367978,-83.1086367643018,0.));
#162=CARTESIAN_POINT('',(-44.2358712367978,-83.1086367643018,0.));
#163=CARTESIAN_POINT('Origin',(-44.2358712367978,0.,0.));
#164=CARTESIAN_POINT('Origin',(-45.2358712367978,0.,0.));
#165=CARTESIAN_POINT('',(-46.2358712367978,-83.1086367643018,0.));
#166=CARTESIAN_POINT('Origin',(-46.2358712367978,0.,0.));
#167=CARTESIAN_POINT('Origin',(-46.2358712367978,-79.7172735286034,0.));
#168=CARTESIAN_POINT('',(-46.2358712367978,-79.7172735286034,0.));
#169=CARTESIAN_POINT('Origin',(-46.2358712367978,0.,0.));
#170=CARTESIAN_POINT('Origin',(-42.2358712367978,0.,0.));
#171=CARTESIAN_POINT('',(-41.1974669933211,-75.8544097428702,0.));
#172=CARTESIAN_POINT('Origin',(-41.1974669933211,0.,0.));
#173=CARTESIAN_POINT('Origin',(-20.5898333199838,0.,0.));
#174=CARTESIAN_POINT('',(0.017800353353552,-86.9337826855247,0.));
#175=CARTESIAN_POINT('Origin',(0.017800353353552,0.,0.));
#176=CARTESIAN_POINT('Origin',(-0.250700884192407,0.,0.));
#177=CARTESIAN_POINT('',(-0.501401768384788,-88.8652145783913,0.));
#178=CARTESIAN_POINT('Origin',(-0.501401768384788,0.,0.));
#179=CARTESIAN_POINT('Origin',(-21.1090354417221,0.,0.));
#180=UNCERTAINTY_MEASURE_WITH_UNIT(LENGTH_MEASURE(0.01),#184,
'DISTANCE_ACCURACY_VALUE',
'Maximum model space distance between geometric entities at asserted c
onnectivities');
#181=UNCERTAINTY_MEASURE_WITH_UNIT(LENGTH_MEASURE(1.E-6),#184,
'DISTANCE_ACCURACY_VALUE',
'Maximum model space distance between geometric entities at asserted c
onnectivities');
#182=(
GEOMETRIC_REPRESENTATION_CONTEXT(3)
GLOBAL_UNCERTAINTY_ASSIGNED_CONTEXT((#180))
GLOBAL_UNIT_ASSIGNED_CONTEXT((#184,#187,#185))
REPRESENTATION_CONTEXT('','3D')
);
#183=(
GEOMETRIC_REPRESENTATION_CONTEXT(3)
GLOBAL_UNCERTAINTY_ASSIGNED_CONTEXT((#181))
GLOBAL_UNIT_ASSIGNED_CONTEXT((#184,#187,#185))
REPRESENTATION_CONTEXT('','3D')
);
#184=(
LENGTH_UNIT()
NAMED_UNIT(*)
SI_UNIT(.MILLI.,.METRE.)
);
#185=(
NAMED_UNIT(*)
SI_UNIT($,.STERADIAN.)
SOLID_ANGLE_UNIT()
);
#186=DIMENSIONAL_EXPONENTS(0.,0.,0.,0.,0.,0.,0.);
#187=(
CONVERSION_BASED_UNIT('degree',#189)
NAMED_UNIT(#186)
PLANE_ANGLE_UNIT()
);
#188=(
NAMED_UNIT(*)
PLANE_ANGLE_UNIT()
SI_UNIT($,.RADIAN.)
);
#189=PLANE_ANGLE_MEASURE_WITH_UNIT(PLANE_ANGLE_MEASURE(0.01745329252),#188);
#190=SHAPE_DEFINITION_REPRESENTATION(#191,#192);
#191=PRODUCT_DEFINITION_SHAPE('',$,#194);
#192=SHAPE_REPRESENTATION('',(#104),#182);
#193=PRODUCT_DEFINITION_CONTEXT('part definition',#198,'design');
#194=PRODUCT_DEFINITION('Konus-150-175','Konus-150-175',#195,#193);
#195=PRODUCT_DEFINITION_FORMATION('',$,#200);
#196=PRODUCT_RELATED_PRODUCT_CATEGORY('Konus-150-175','Konus-150-175',(#200));
#197=APPLICATION_PROTOCOL_DEFINITION('international standard',
'automotive_design',2009,#198);
#198=APPLICATION_CONTEXT(
'Core Data for Automotive Mechanical Design Process');
#199=PRODUCT_CONTEXT('part definition',#198,'mechanical');
#200=PRODUCT('Konus-150-175','Konus-150-175',$,(#199));
#201=PRESENTATION_STYLE_ASSIGNMENT((#202));
#202=SURFACE_STYLE_USAGE(.BOTH.,#203);
#203=SURFACE_SIDE_STYLE('',(#204));
#204=SURFACE_STYLE_FILL_AREA(#205);
#205=FILL_AREA_STYLE('',(#206));
#206=FILL_AREA_STYLE_COLOUR('',#207);
#207=COLOUR_RGB('',0.6,0.6,0.6);
ENDSEC;
END-ISO-10303-21;
