ISO-10303-21;
HEADER;
/* Generated by software containing ST-Developer
 * from STEP Tools, Inc. (www.steptools.com) 
 */

FILE_DESCRIPTION(
/* description */ (''),
/* implementation_level */ '2;1');

FILE_NAME(
/* name */ 'E:\\Gabelst\X\FCcke\\4009003016276 - 3-fach Verteiler d300.
stp',
/* time_stamp */ '2015-05-29T07:12:50+02:00',
/* author */ ('dpurucker'),
/* organization */ (''),
/* preprocessor_version */ 'ST-DEVELOPER v15.6',
/* originating_system */ 'Autodesk Inventor 2015',
/* authorisation */ '');

FILE_SCHEMA (('AUTOMOTIVE_DESIGN { 1 0 10303 214 3 1 1 }'));
ENDSEC;

DATA;
#10=MECHANICAL_DESIGN_GEOMETRIC_PRESENTATION_REPRESENTATION('',(#13),#615);
#11=SHAPE_REPRESENTATION_RELATIONSHIP('SRR','None',#624,#12);
#12=ADVANCED_BREP_SHAPE_REPRESENTATION($,(#14),#614);
#13=STYLED_ITEM('',(#633),#14);
#14=MANIFOLD_SOLID_BREP('Volumenk\X\F6rper1',#339);
#15=PLANE('',#362);
#16=PLANE('',#383);
#17=PLANE('',#389);
#18=PLANE('',#397);
#19=ELLIPSE('',#348,394.582015392666,151.);
#20=ELLIPSE('',#349,163.441222244151,151.);
#21=ELLIPSE('',#351,391.968889462913,150.);
#22=ELLIPSE('',#352,391.968889462913,150.);
#23=ELLIPSE('',#355,162.358830043859,150.);
#24=ELLIPSE('',#356,162.358830043859,150.);
#25=ELLIPSE('',#364,394.582015392666,151.);
#26=ELLIPSE('',#367,163.441222244151,151.);
#27=TOROIDAL_SURFACE('',#344,146.,10.);
#28=TOROIDAL_SURFACE('',#372,146.,10.);
#29=TOROIDAL_SURFACE('',#379,146.,10.);
#30=TOROIDAL_SURFACE('',#387,146.,9.);
#31=TOROIDAL_SURFACE('',#393,146.,10.);
#32=TOROIDAL_SURFACE('',#398,146.,9.);
#33=TOROIDAL_SURFACE('',#399,146.,9.);
#34=TOROIDAL_SURFACE('',#400,146.,9.);
#35=FACE_BOUND('',#92,.T.);
#36=FACE_BOUND('',#94,.T.);
#37=FACE_BOUND('',#96,.T.);
#38=FACE_BOUND('',#98,.T.);
#39=FACE_BOUND('',#100,.T.);
#40=FACE_BOUND('',#102,.T.);
#41=FACE_BOUND('',#104,.T.);
#42=FACE_BOUND('',#106,.T.);
#43=FACE_BOUND('',#108,.T.);
#44=FACE_BOUND('',#110,.T.);
#45=FACE_BOUND('',#112,.T.);
#46=FACE_BOUND('',#114,.T.);
#47=FACE_BOUND('',#116,.T.);
#48=FACE_BOUND('',#118,.T.);
#49=FACE_BOUND('',#120,.T.);
#50=FACE_BOUND('',#122,.T.);
#51=FACE_BOUND('',#124,.T.);
#52=FACE_BOUND('',#126,.T.);
#53=FACE_BOUND('',#128,.T.);
#54=FACE_BOUND('',#130,.T.);
#55=FACE_BOUND('',#132,.T.);
#56=FACE_BOUND('',#134,.T.);
#57=FACE_BOUND('',#136,.T.);
#58=FACE_BOUND('',#138,.T.);
#59=FACE_BOUND('',#140,.T.);
#60=FACE_BOUND('',#142,.T.);
#61=FACE_BOUND('',#144,.T.);
#62=FACE_BOUND('',#146,.T.);
#63=FACE_OUTER_BOUND('',#91,.T.);
#64=FACE_OUTER_BOUND('',#93,.T.);
#65=FACE_OUTER_BOUND('',#95,.T.);
#66=FACE_OUTER_BOUND('',#97,.T.);
#67=FACE_OUTER_BOUND('',#99,.T.);
#68=FACE_OUTER_BOUND('',#101,.T.);
#69=FACE_OUTER_BOUND('',#103,.T.);
#70=FACE_OUTER_BOUND('',#105,.T.);
#71=FACE_OUTER_BOUND('',#107,.T.);
#72=FACE_OUTER_BOUND('',#109,.T.);
#73=FACE_OUTER_BOUND('',#111,.T.);
#74=FACE_OUTER_BOUND('',#113,.T.);
#75=FACE_OUTER_BOUND('',#115,.T.);
#76=FACE_OUTER_BOUND('',#117,.T.);
#77=FACE_OUTER_BOUND('',#119,.T.);
#78=FACE_OUTER_BOUND('',#121,.T.);
#79=FACE_OUTER_BOUND('',#123,.T.);
#80=FACE_OUTER_BOUND('',#125,.T.);
#81=FACE_OUTER_BOUND('',#127,.T.);
#82=FACE_OUTER_BOUND('',#129,.T.);
#83=FACE_OUTER_BOUND('',#131,.T.);
#84=FACE_OUTER_BOUND('',#133,.T.);
#85=FACE_OUTER_BOUND('',#135,.T.);
#86=FACE_OUTER_BOUND('',#137,.T.);
#87=FACE_OUTER_BOUND('',#139,.T.);
#88=FACE_OUTER_BOUND('',#141,.T.);
#89=FACE_OUTER_BOUND('',#143,.T.);
#90=FACE_OUTER_BOUND('',#145,.T.);
#91=EDGE_LOOP('',(#231));
#92=EDGE_LOOP('',(#232));
#93=EDGE_LOOP('',(#233));
#94=EDGE_LOOP('',(#234));
#95=EDGE_LOOP('',(#235,#236));
#96=EDGE_LOOP('',(#237));
#97=EDGE_LOOP('',(#238,#239));
#98=EDGE_LOOP('',(#240));
#99=EDGE_LOOP('',(#241,#242));
#100=EDGE_LOOP('',(#243));
#101=EDGE_LOOP('',(#244));
#102=EDGE_LOOP('',(#245,#246));
#103=EDGE_LOOP('',(#247));
#104=EDGE_LOOP('',(#248));
#105=EDGE_LOOP('',(#249));
#106=EDGE_LOOP('',(#250));
#107=EDGE_LOOP('',(#251,#252));
#108=EDGE_LOOP('',(#253));
#109=EDGE_LOOP('',(#254,#255));
#110=EDGE_LOOP('',(#256));
#111=EDGE_LOOP('',(#257));
#112=EDGE_LOOP('',(#258));
#113=EDGE_LOOP('',(#259));
#114=EDGE_LOOP('',(#260));
#115=EDGE_LOOP('',(#261));
#116=EDGE_LOOP('',(#262));
#117=EDGE_LOOP('',(#263));
#118=EDGE_LOOP('',(#264,#265));
#119=EDGE_LOOP('',(#266));
#120=EDGE_LOOP('',(#267));
#121=EDGE_LOOP('',(#268));
#122=EDGE_LOOP('',(#269));
#123=EDGE_LOOP('',(#270));
#124=EDGE_LOOP('',(#271));
#125=EDGE_LOOP('',(#272));
#126=EDGE_LOOP('',(#273));
#127=EDGE_LOOP('',(#274));
#128=EDGE_LOOP('',(#275));
#129=EDGE_LOOP('',(#276));
#130=EDGE_LOOP('',(#277,#278));
#131=EDGE_LOOP('',(#279));
#132=EDGE_LOOP('',(#280));
#133=EDGE_LOOP('',(#281));
#134=EDGE_LOOP('',(#282));
#135=EDGE_LOOP('',(#283));
#136=EDGE_LOOP('',(#284));
#137=EDGE_LOOP('',(#285));
#138=EDGE_LOOP('',(#286));
#139=EDGE_LOOP('',(#287));
#140=EDGE_LOOP('',(#288));
#141=EDGE_LOOP('',(#289));
#142=EDGE_LOOP('',(#290));
#143=EDGE_LOOP('',(#291));
#144=EDGE_LOOP('',(#292));
#145=EDGE_LOOP('',(#293));
#146=EDGE_LOOP('',(#294));
#147=CIRCLE('',#342,150.);
#148=CIRCLE('',#343,150.);
#149=CIRCLE('',#345,151.);
#150=CIRCLE('',#346,151.);
#151=CIRCLE('',#353,150.);
#152=CIRCLE('',#357,150.);
#153=CIRCLE('',#359,150.);
#154=CIRCLE('',#361,151.);
#155=CIRCLE('',#365,151.);
#156=CIRCLE('',#368,151.);
#157=CIRCLE('',#370,150.);
#158=CIRCLE('',#371,150.);
#159=CIRCLE('',#373,151.);
#160=CIRCLE('',#374,151.);
#161=CIRCLE('',#376,151.);
#162=CIRCLE('',#378,150.);
#163=CIRCLE('',#380,151.);
#164=CIRCLE('',#382,151.);
#165=CIRCLE('',#384,150.);
#166=CIRCLE('',#386,150.);
#167=CIRCLE('',#391,150.);
#168=CIRCLE('',#392,150.);
#169=CIRCLE('',#394,151.);
#170=CIRCLE('',#396,151.);
#171=VERTEX_POINT('',#525);
#172=VERTEX_POINT('',#527);
#173=VERTEX_POINT('',#530);
#174=VERTEX_POINT('',#532);
#175=VERTEX_POINT('',#535);
#176=VERTEX_POINT('',#536);
#177=VERTEX_POINT('',#540);
#178=VERTEX_POINT('',#541);
#179=VERTEX_POINT('',#544);
#180=VERTEX_POINT('',#549);
#181=VERTEX_POINT('',#552);
#182=VERTEX_POINT('',#555);
#183=VERTEX_POINT('',#560);
#184=VERTEX_POINT('',#564);
#185=VERTEX_POINT('',#567);
#186=VERTEX_POINT('',#569);
#187=VERTEX_POINT('',#572);
#188=VERTEX_POINT('',#574);
#189=VERTEX_POINT('',#577);
#190=VERTEX_POINT('',#580);
#191=VERTEX_POINT('',#583);
#192=VERTEX_POINT('',#586);
#193=VERTEX_POINT('',#589);
#194=VERTEX_POINT('',#592);
#195=VERTEX_POINT('',#598);
#196=VERTEX_POINT('',#600);
#197=VERTEX_POINT('',#603);
#198=VERTEX_POINT('',#606);
#199=EDGE_CURVE('',#171,#171,#147,.T.);
#200=EDGE_CURVE('',#172,#172,#148,.T.);
#201=EDGE_CURVE('',#173,#173,#149,.T.);
#202=EDGE_CURVE('',#174,#174,#150,.T.);
#203=EDGE_CURVE('',#175,#176,#19,.T.);
#204=EDGE_CURVE('',#176,#175,#20,.T.);
#205=EDGE_CURVE('',#177,#178,#21,.T.);
#206=EDGE_CURVE('',#178,#177,#22,.T.);
#207=EDGE_CURVE('',#179,#179,#151,.T.);
#208=EDGE_CURVE('',#178,#177,#23,.T.);
#209=EDGE_CURVE('',#177,#178,#24,.T.);
#210=EDGE_CURVE('',#180,#180,#152,.T.);
#211=EDGE_CURVE('',#181,#181,#153,.T.);
#212=EDGE_CURVE('',#182,#182,#154,.T.);
#213=EDGE_CURVE('',#176,#175,#25,.T.);
#214=EDGE_CURVE('',#183,#183,#155,.T.);
#215=EDGE_CURVE('',#175,#176,#26,.T.);
#216=EDGE_CURVE('',#184,#184,#156,.T.);
#217=EDGE_CURVE('',#185,#185,#157,.T.);
#218=EDGE_CURVE('',#186,#186,#158,.T.);
#219=EDGE_CURVE('',#187,#187,#159,.T.);
#220=EDGE_CURVE('',#188,#188,#160,.T.);
#221=EDGE_CURVE('',#189,#189,#161,.T.);
#222=EDGE_CURVE('',#190,#190,#162,.T.);
#223=EDGE_CURVE('',#191,#191,#163,.T.);
#224=EDGE_CURVE('',#192,#192,#164,.T.);
#225=EDGE_CURVE('',#193,#193,#165,.T.);
#226=EDGE_CURVE('',#194,#194,#166,.T.);
#227=EDGE_CURVE('',#195,#195,#167,.T.);
#228=EDGE_CURVE('',#196,#196,#168,.T.);
#229=EDGE_CURVE('',#197,#197,#169,.T.);
#230=EDGE_CURVE('',#198,#198,#170,.T.);
#231=ORIENTED_EDGE('',*,*,#199,.T.);
#232=ORIENTED_EDGE('',*,*,#200,.T.);
#233=ORIENTED_EDGE('',*,*,#201,.F.);
#234=ORIENTED_EDGE('',*,*,#202,.F.);
#235=ORIENTED_EDGE('',*,*,#203,.F.);
#236=ORIENTED_EDGE('',*,*,#204,.F.);
#237=ORIENTED_EDGE('',*,*,#201,.T.);
#238=ORIENTED_EDGE('',*,*,#205,.T.);
#239=ORIENTED_EDGE('',*,*,#206,.T.);
#240=ORIENTED_EDGE('',*,*,#207,.T.);
#241=ORIENTED_EDGE('',*,*,#208,.T.);
#242=ORIENTED_EDGE('',*,*,#209,.T.);
#243=ORIENTED_EDGE('',*,*,#210,.T.);
#244=ORIENTED_EDGE('',*,*,#211,.T.);
#245=ORIENTED_EDGE('',*,*,#208,.F.);
#246=ORIENTED_EDGE('',*,*,#205,.F.);
#247=ORIENTED_EDGE('',*,*,#202,.T.);
#248=ORIENTED_EDGE('',*,*,#212,.F.);
#249=ORIENTED_EDGE('',*,*,#212,.T.);
#250=ORIENTED_EDGE('',*,*,#199,.F.);
#251=ORIENTED_EDGE('',*,*,#203,.T.);
#252=ORIENTED_EDGE('',*,*,#213,.T.);
#253=ORIENTED_EDGE('',*,*,#214,.T.);
#254=ORIENTED_EDGE('',*,*,#204,.T.);
#255=ORIENTED_EDGE('',*,*,#215,.T.);
#256=ORIENTED_EDGE('',*,*,#216,.T.);
#257=ORIENTED_EDGE('',*,*,#217,.F.);
#258=ORIENTED_EDGE('',*,*,#218,.T.);
#259=ORIENTED_EDGE('',*,*,#219,.F.);
#260=ORIENTED_EDGE('',*,*,#220,.F.);
#261=ORIENTED_EDGE('',*,*,#221,.T.);
#262=ORIENTED_EDGE('',*,*,#220,.T.);
#263=ORIENTED_EDGE('',*,*,#222,.T.);
#264=ORIENTED_EDGE('',*,*,#209,.F.);
#265=ORIENTED_EDGE('',*,*,#206,.F.);
#266=ORIENTED_EDGE('',*,*,#216,.F.);
#267=ORIENTED_EDGE('',*,*,#223,.F.);
#268=ORIENTED_EDGE('',*,*,#223,.T.);
#269=ORIENTED_EDGE('',*,*,#224,.F.);
#270=ORIENTED_EDGE('',*,*,#224,.T.);
#271=ORIENTED_EDGE('',*,*,#225,.T.);
#272=ORIENTED_EDGE('',*,*,#225,.F.);
#273=ORIENTED_EDGE('',*,*,#226,.T.);
#274=ORIENTED_EDGE('',*,*,#226,.F.);
#275=ORIENTED_EDGE('',*,*,#210,.F.);
#276=ORIENTED_EDGE('',*,*,#219,.T.);
#277=ORIENTED_EDGE('',*,*,#213,.F.);
#278=ORIENTED_EDGE('',*,*,#215,.F.);
#279=ORIENTED_EDGE('',*,*,#221,.F.);
#280=ORIENTED_EDGE('',*,*,#217,.T.);
#281=ORIENTED_EDGE('',*,*,#227,.F.);
#282=ORIENTED_EDGE('',*,*,#228,.T.);
#283=ORIENTED_EDGE('',*,*,#214,.F.);
#284=ORIENTED_EDGE('',*,*,#229,.F.);
#285=ORIENTED_EDGE('',*,*,#229,.T.);
#286=ORIENTED_EDGE('',*,*,#230,.F.);
#287=ORIENTED_EDGE('',*,*,#230,.T.);
#288=ORIENTED_EDGE('',*,*,#227,.T.);
#289=ORIENTED_EDGE('',*,*,#207,.F.);
#290=ORIENTED_EDGE('',*,*,#228,.F.);
#291=ORIENTED_EDGE('',*,*,#222,.F.);
#292=ORIENTED_EDGE('',*,*,#218,.F.);
#293=ORIENTED_EDGE('',*,*,#211,.F.);
#294=ORIENTED_EDGE('',*,*,#200,.F.);
#295=CYLINDRICAL_SURFACE('',#341,150.);
#296=CYLINDRICAL_SURFACE('',#347,151.);
#297=CYLINDRICAL_SURFACE('',#350,150.);
#298=CYLINDRICAL_SURFACE('',#354,150.);
#299=CYLINDRICAL_SURFACE('',#358,150.);
#300=CYLINDRICAL_SURFACE('',#360,151.);
#301=CYLINDRICAL_SURFACE('',#363,151.);
#302=CYLINDRICAL_SURFACE('',#366,151.);
#303=CYLINDRICAL_SURFACE('',#369,150.);
#304=CYLINDRICAL_SURFACE('',#375,151.);
#305=CYLINDRICAL_SURFACE('',#377,150.);
#306=CYLINDRICAL_SURFACE('',#381,151.);
#307=CYLINDRICAL_SURFACE('',#385,150.);
#308=CYLINDRICAL_SURFACE('',#388,151.);
#309=CYLINDRICAL_SURFACE('',#390,150.);
#310=CYLINDRICAL_SURFACE('',#395,151.);
#311=ADVANCED_FACE('',(#63,#35),#295,.F.);
#312=ADVANCED_FACE('',(#64,#36),#27,.T.);
#313=ADVANCED_FACE('',(#65,#37),#296,.T.);
#314=ADVANCED_FACE('',(#66,#38),#297,.F.);
#315=ADVANCED_FACE('',(#67,#39),#298,.F.);
#316=ADVANCED_FACE('',(#68,#40),#299,.F.);
#317=ADVANCED_FACE('',(#69,#41),#300,.T.);
#318=ADVANCED_FACE('',(#70,#42),#15,.T.);
#319=ADVANCED_FACE('',(#71,#43),#301,.T.);
#320=ADVANCED_FACE('',(#72,#44),#302,.T.);
#321=ADVANCED_FACE('',(#73,#45),#303,.F.);
#322=ADVANCED_FACE('',(#74,#46),#28,.T.);
#323=ADVANCED_FACE('',(#75,#47),#304,.T.);
#324=ADVANCED_FACE('',(#76,#48),#305,.F.);
#325=ADVANCED_FACE('',(#77,#49),#29,.T.);
#326=ADVANCED_FACE('',(#78,#50),#306,.T.);
#327=ADVANCED_FACE('',(#79,#51),#16,.F.);
#328=ADVANCED_FACE('',(#80,#52),#307,.F.);
#329=ADVANCED_FACE('',(#81,#53),#30,.F.);
#330=ADVANCED_FACE('',(#82,#54),#308,.T.);
#331=ADVANCED_FACE('',(#83,#55),#17,.F.);
#332=ADVANCED_FACE('',(#84,#56),#309,.F.);
#333=ADVANCED_FACE('',(#85,#57),#31,.T.);
#334=ADVANCED_FACE('',(#86,#58),#310,.T.);
#335=ADVANCED_FACE('',(#87,#59),#18,.T.);
#336=ADVANCED_FACE('',(#88,#60),#32,.F.);
#337=ADVANCED_FACE('',(#89,#61),#33,.F.);
#338=ADVANCED_FACE('',(#90,#62),#34,.F.);
#339=CLOSED_SHELL('',(#311,#312,#313,#314,#315,#316,#317,#318,#319,#320,
#321,#322,#323,#324,#325,#326,#327,#328,#329,#330,#331,#332,#333,#334,#335,
#336,#337,#338));
#340=AXIS2_PLACEMENT_3D('placement',#523,#401,#402);
#341=AXIS2_PLACEMENT_3D('',#524,#403,#404);
#342=AXIS2_PLACEMENT_3D('',#526,#405,#406);
#343=AXIS2_PLACEMENT_3D('',#528,#407,#408);
#344=AXIS2_PLACEMENT_3D('',#529,#409,#410);
#345=AXIS2_PLACEMENT_3D('',#531,#411,#412);
#346=AXIS2_PLACEMENT_3D('',#533,#413,#414);
#347=AXIS2_PLACEMENT_3D('',#534,#415,#416);
#348=AXIS2_PLACEMENT_3D('',#537,#417,#418);
#349=AXIS2_PLACEMENT_3D('',#538,#419,#420);
#350=AXIS2_PLACEMENT_3D('',#539,#421,#422);
#351=AXIS2_PLACEMENT_3D('',#542,#423,#424);
#352=AXIS2_PLACEMENT_3D('',#543,#425,#426);
#353=AXIS2_PLACEMENT_3D('',#545,#427,#428);
#354=AXIS2_PLACEMENT_3D('',#546,#429,#430);
#355=AXIS2_PLACEMENT_3D('',#547,#431,#432);
#356=AXIS2_PLACEMENT_3D('',#548,#433,#434);
#357=AXIS2_PLACEMENT_3D('',#550,#435,#436);
#358=AXIS2_PLACEMENT_3D('',#551,#437,#438);
#359=AXIS2_PLACEMENT_3D('',#553,#439,#440);
#360=AXIS2_PLACEMENT_3D('',#554,#441,#442);
#361=AXIS2_PLACEMENT_3D('',#556,#443,#444);
#362=AXIS2_PLACEMENT_3D('',#557,#445,#446);
#363=AXIS2_PLACEMENT_3D('',#558,#447,#448);
#364=AXIS2_PLACEMENT_3D('',#559,#449,#450);
#365=AXIS2_PLACEMENT_3D('',#561,#451,#452);
#366=AXIS2_PLACEMENT_3D('',#562,#453,#454);
#367=AXIS2_PLACEMENT_3D('',#563,#455,#456);
#368=AXIS2_PLACEMENT_3D('',#565,#457,#458);
#369=AXIS2_PLACEMENT_3D('',#566,#459,#460);
#370=AXIS2_PLACEMENT_3D('',#568,#461,#462);
#371=AXIS2_PLACEMENT_3D('',#570,#463,#464);
#372=AXIS2_PLACEMENT_3D('',#571,#465,#466);
#373=AXIS2_PLACEMENT_3D('',#573,#467,#468);
#374=AXIS2_PLACEMENT_3D('',#575,#469,#470);
#375=AXIS2_PLACEMENT_3D('',#576,#471,#472);
#376=AXIS2_PLACEMENT_3D('',#578,#473,#474);
#377=AXIS2_PLACEMENT_3D('',#579,#475,#476);
#378=AXIS2_PLACEMENT_3D('',#581,#477,#478);
#379=AXIS2_PLACEMENT_3D('',#582,#479,#480);
#380=AXIS2_PLACEMENT_3D('',#584,#481,#482);
#381=AXIS2_PLACEMENT_3D('',#585,#483,#484);
#382=AXIS2_PLACEMENT_3D('',#587,#485,#486);
#383=AXIS2_PLACEMENT_3D('',#588,#487,#488);
#384=AXIS2_PLACEMENT_3D('',#590,#489,#490);
#385=AXIS2_PLACEMENT_3D('',#591,#491,#492);
#386=AXIS2_PLACEMENT_3D('',#593,#493,#494);
#387=AXIS2_PLACEMENT_3D('',#594,#495,#496);
#388=AXIS2_PLACEMENT_3D('',#595,#497,#498);
#389=AXIS2_PLACEMENT_3D('',#596,#499,#500);
#390=AXIS2_PLACEMENT_3D('',#597,#501,#502);
#391=AXIS2_PLACEMENT_3D('',#599,#503,#504);
#392=AXIS2_PLACEMENT_3D('',#601,#505,#506);
#393=AXIS2_PLACEMENT_3D('',#602,#507,#508);
#394=AXIS2_PLACEMENT_3D('',#604,#509,#510);
#395=AXIS2_PLACEMENT_3D('',#605,#511,#512);
#396=AXIS2_PLACEMENT_3D('',#607,#513,#514);
#397=AXIS2_PLACEMENT_3D('',#608,#515,#516);
#398=AXIS2_PLACEMENT_3D('',#609,#517,#518);
#399=AXIS2_PLACEMENT_3D('',#610,#519,#520);
#400=AXIS2_PLACEMENT_3D('',#611,#521,#522);
#401=DIRECTION('axis',(0.,0.,1.));
#402=DIRECTION('refdir',(1.,0.,0.));
#403=DIRECTION('center_axis',(0.707106781186547,0.707106781186548,0.));
#404=DIRECTION('ref_axis',(0.,0.,-1.));
#405=DIRECTION('center_axis',(0.707106781186547,0.707106781186548,0.));
#406=DIRECTION('ref_axis',(0.,0.,-1.));
#407=DIRECTION('center_axis',(-0.707106781186547,-0.707106781186548,0.));
#408=DIRECTION('ref_axis',(0.,0.,-1.));
#409=DIRECTION('center_axis',(-0.707106781186547,-0.707106781186548,0.));
#410=DIRECTION('ref_axis',(0.,0.,-1.));
#411=DIRECTION('center_axis',(-0.707106781186547,-0.707106781186548,0.));
#412=DIRECTION('ref_axis',(0.,0.,-1.));
#413=DIRECTION('center_axis',(0.707106781186547,0.707106781186548,0.));
#414=DIRECTION('ref_axis',(0.,0.,-1.));
#415=DIRECTION('center_axis',(0.707106781186547,0.707106781186548,0.));
#416=DIRECTION('ref_axis',(0.,0.,-1.));
#417=DIRECTION('center_axis',(-0.923879532511287,0.38268343236509,0.));
#418=DIRECTION('ref_axis',(0.38268343236509,0.923879532511287,0.));
#419=DIRECTION('center_axis',(-0.38268343236509,-0.923879532511287,0.));
#420=DIRECTION('ref_axis',(-0.923879532511287,0.38268343236509,0.));
#421=DIRECTION('center_axis',(0.,1.,0.));
#422=DIRECTION('ref_axis',(1.,0.,0.));
#423=DIRECTION('center_axis',(0.923879532511287,-0.38268343236509,0.));
#424=DIRECTION('ref_axis',(0.38268343236509,0.923879532511287,0.));
#425=DIRECTION('center_axis',(-0.923879532511287,-0.38268343236509,0.));
#426=DIRECTION('ref_axis',(-0.38268343236509,0.923879532511287,0.));
#427=DIRECTION('center_axis',(0.,1.,0.));
#428=DIRECTION('ref_axis',(1.,0.,0.));
#429=DIRECTION('center_axis',(0.,1.,0.));
#430=DIRECTION('ref_axis',(1.,0.,0.));
#431=DIRECTION('center_axis',(0.382683432365091,0.923879532511287,0.));
#432=DIRECTION('ref_axis',(-0.923879532511286,0.382683432365091,0.));
#433=DIRECTION('center_axis',(-0.382683432365091,0.923879532511287,0.));
#434=DIRECTION('ref_axis',(0.923879532511286,0.382683432365091,0.));
#435=DIRECTION('center_axis',(0.,-1.,0.));
#436=DIRECTION('ref_axis',(1.,0.,0.));
#437=DIRECTION('center_axis',(0.707106781186547,0.707106781186548,0.));
#438=DIRECTION('ref_axis',(0.,0.,-1.));
#439=DIRECTION('center_axis',(0.707106781186547,0.707106781186548,0.));
#440=DIRECTION('ref_axis',(0.,0.,-1.));
#441=DIRECTION('center_axis',(0.707106781186547,0.707106781186548,0.));
#442=DIRECTION('ref_axis',(0.,0.,-1.));
#443=DIRECTION('center_axis',(0.707106781186547,0.707106781186548,0.));
#444=DIRECTION('ref_axis',(0.,0.,-1.));
#445=DIRECTION('center_axis',(0.707106781186547,0.707106781186548,0.));
#446=DIRECTION('ref_axis',(0.,0.,-1.));
#447=DIRECTION('center_axis',(0.,1.,0.));
#448=DIRECTION('ref_axis',(1.,0.,0.));
#449=DIRECTION('center_axis',(0.923879532511287,0.38268343236509,0.));
#450=DIRECTION('ref_axis',(-0.38268343236509,0.923879532511287,0.));
#451=DIRECTION('center_axis',(0.,-1.,0.));
#452=DIRECTION('ref_axis',(1.,0.,0.));
#453=DIRECTION('center_axis',(0.,1.,0.));
#454=DIRECTION('ref_axis',(1.,0.,0.));
#455=DIRECTION('center_axis',(0.38268343236509,-0.923879532511287,0.));
#456=DIRECTION('ref_axis',(0.923879532511287,0.38268343236509,0.));
#457=DIRECTION('center_axis',(0.,1.,0.));
#458=DIRECTION('ref_axis',(1.,0.,0.));
#459=DIRECTION('center_axis',(0.707106781186547,-0.707106781186548,0.));
#460=DIRECTION('ref_axis',(0.,0.,-1.));
#461=DIRECTION('center_axis',(0.707106781186547,-0.707106781186548,0.));
#462=DIRECTION('ref_axis',(0.,0.,-1.));
#463=DIRECTION('center_axis',(0.707106781186547,-0.707106781186548,0.));
#464=DIRECTION('ref_axis',(0.,0.,-1.));
#465=DIRECTION('center_axis',(0.707106781186547,-0.707106781186548,0.));
#466=DIRECTION('ref_axis',(0.,0.,-1.));
#467=DIRECTION('center_axis',(0.707106781186547,-0.707106781186548,0.));
#468=DIRECTION('ref_axis',(0.,0.,-1.));
#469=DIRECTION('center_axis',(-0.707106781186547,0.707106781186548,0.));
#470=DIRECTION('ref_axis',(0.,0.,-1.));
#471=DIRECTION('center_axis',(0.707106781186547,-0.707106781186548,0.));
#472=DIRECTION('ref_axis',(0.,0.,-1.));
#473=DIRECTION('center_axis',(0.707106781186547,-0.707106781186548,0.));
#474=DIRECTION('ref_axis',(0.,0.,-1.));
#475=DIRECTION('center_axis',(0.707106781186547,-0.707106781186548,0.));
#476=DIRECTION('ref_axis',(0.,0.,-1.));
#477=DIRECTION('center_axis',(-0.707106781186547,0.707106781186548,0.));
#478=DIRECTION('ref_axis',(0.,0.,-1.));
#479=DIRECTION('center_axis',(0.,1.,0.));
#480=DIRECTION('ref_axis',(0.,0.,1.));
#481=DIRECTION('center_axis',(0.,-1.,0.));
#482=DIRECTION('ref_axis',(1.,0.,0.));
#483=DIRECTION('center_axis',(0.,1.,0.));
#484=DIRECTION('ref_axis',(1.,0.,0.));
#485=DIRECTION('center_axis',(0.,-1.,0.));
#486=DIRECTION('ref_axis',(1.,0.,0.));
#487=DIRECTION('center_axis',(0.,1.,0.));
#488=DIRECTION('ref_axis',(0.,0.,1.));
#489=DIRECTION('center_axis',(0.,1.,0.));
#490=DIRECTION('ref_axis',(1.,0.,0.));
#491=DIRECTION('center_axis',(0.,1.,0.));
#492=DIRECTION('ref_axis',(1.,0.,0.));
#493=DIRECTION('center_axis',(0.,1.,0.));
#494=DIRECTION('ref_axis',(1.,0.,0.));
#495=DIRECTION('center_axis',(0.,1.,0.));
#496=DIRECTION('ref_axis',(0.,0.,1.));
#497=DIRECTION('center_axis',(0.707106781186547,-0.707106781186548,0.));
#498=DIRECTION('ref_axis',(0.,0.,-1.));
#499=DIRECTION('center_axis',(0.707106781186547,-0.707106781186548,0.));
#500=DIRECTION('ref_axis',(0.,0.,-1.));
#501=DIRECTION('center_axis',(0.,1.,0.));
#502=DIRECTION('ref_axis',(1.,0.,0.));
#503=DIRECTION('center_axis',(0.,-1.,0.));
#504=DIRECTION('ref_axis',(1.,0.,0.));
#505=DIRECTION('center_axis',(0.,-1.,0.));
#506=DIRECTION('ref_axis',(1.,0.,0.));
#507=DIRECTION('center_axis',(0.,-1.,0.));
#508=DIRECTION('ref_axis',(0.,0.,1.));
#509=DIRECTION('center_axis',(0.,1.,0.));
#510=DIRECTION('ref_axis',(1.,0.,0.));
#511=DIRECTION('center_axis',(0.,1.,0.));
#512=DIRECTION('ref_axis',(1.,0.,0.));
#513=DIRECTION('center_axis',(0.,1.,0.));
#514=DIRECTION('ref_axis',(1.,0.,0.));
#515=DIRECTION('center_axis',(0.,1.,0.));
#516=DIRECTION('ref_axis',(0.,0.,1.));
#517=DIRECTION('center_axis',(0.,-1.,0.));
#518=DIRECTION('ref_axis',(0.,0.,1.));
#519=DIRECTION('center_axis',(0.707106781186547,-0.707106781186548,0.));
#520=DIRECTION('ref_axis',(0.,0.,-1.));
#521=DIRECTION('center_axis',(-0.707106781186547,-0.707106781186548,0.));
#522=DIRECTION('ref_axis',(0.,0.,-1.));
#523=CARTESIAN_POINT('',(0.,0.,0.));
#524=CARTESIAN_POINT('Origin',(366.988419435818,531.988419435818,0.));
#525=CARTESIAN_POINT('',(366.988419435818,531.988419435818,150.));
#526=CARTESIAN_POINT('Origin',(366.988419435818,531.988419435818,0.));
#527=CARTESIAN_POINT('',(351.476093125717,516.476093125718,-150.));
#528=CARTESIAN_POINT('Origin',(351.476093125718,516.476093125718,0.));
#529=CARTESIAN_POINT('Origin',(345.775216000222,510.775216000222,0.));
#530=CARTESIAN_POINT('',(339.651491643264,504.651491643264,-151.));
#531=CARTESIAN_POINT('Origin',(339.651491643264,504.651491643264,0.));
#532=CARTESIAN_POINT('',(351.89894035718,516.89894035718,-151.));
#533=CARTESIAN_POINT('Origin',(351.89894035718,516.89894035718,0.));
#534=CARTESIAN_POINT('Origin',(366.988419435818,531.988419435818,0.));
#535=CARTESIAN_POINT('',(7.105427357601E-14,165.,151.));
#536=CARTESIAN_POINT('',(7.105427357601E-14,165.,-151.));
#537=CARTESIAN_POINT('Origin',(-1.4210854715202E-13,165.,0.));
#538=CARTESIAN_POINT('Origin',(-7.105427357601E-14,165.,0.));
#539=CARTESIAN_POINT('Origin',(0.,0.,0.));
#540=CARTESIAN_POINT('',(7.105427357601E-14,165.,-150.));
#541=CARTESIAN_POINT('',(7.105427357601E-14,165.,150.));
#542=CARTESIAN_POINT('Origin',(-1.4210854715202E-13,165.,0.));
#543=CARTESIAN_POINT('Origin',(1.4210854715202E-13,165.,0.));
#544=CARTESIAN_POINT('',(-150.,650.937742251701,0.));
#545=CARTESIAN_POINT('Origin',(0.,650.937742251701,0.));
#546=CARTESIAN_POINT('Origin',(0.,0.,0.));
#547=CARTESIAN_POINT('Origin',(0.,165.,0.));
#548=CARTESIAN_POINT('Origin',(0.,165.,0.));
#549=CARTESIAN_POINT('',(-150.,38.0622577482985,0.));
#550=CARTESIAN_POINT('Origin',(0.,38.0622577482985,0.));
#551=CARTESIAN_POINT('Origin',(366.988419435818,531.988419435818,0.));
#552=CARTESIAN_POINT('',(340.074338874726,505.074338874726,-150.));
#553=CARTESIAN_POINT('Origin',(340.074338874726,505.074338874726,0.));
#554=CARTESIAN_POINT('Origin',(366.988419435818,531.988419435818,0.));
#555=CARTESIAN_POINT('',(366.988419435818,531.988419435818,151.));
#556=CARTESIAN_POINT('Origin',(366.988419435818,531.988419435818,0.));
#557=CARTESIAN_POINT('Origin',(366.988419435818,531.988419435818,-7.81512193095888E-15));
#558=CARTESIAN_POINT('Origin',(0.,0.,0.));
#559=CARTESIAN_POINT('Origin',(1.4210854715202E-13,165.,0.));
#560=CARTESIAN_POINT('',(0.,650.339745962156,151.));
#561=CARTESIAN_POINT('Origin',(0.,650.339745962156,0.));
#562=CARTESIAN_POINT('Origin',(0.,0.,0.));
#563=CARTESIAN_POINT('Origin',(7.105427357601E-14,165.,0.));
#564=CARTESIAN_POINT('',(0.,38.6602540378444,151.));
#565=CARTESIAN_POINT('Origin',(0.,38.6602540378444,0.));
#566=CARTESIAN_POINT('Origin',(-366.988419435818,531.988419435818,0.));
#567=CARTESIAN_POINT('',(-366.988419435818,531.988419435818,150.));
#568=CARTESIAN_POINT('Origin',(-366.988419435818,531.988419435818,0.));
#569=CARTESIAN_POINT('',(-351.476093125717,516.476093125718,-150.));
#570=CARTESIAN_POINT('Origin',(-351.476093125718,516.476093125718,0.));
#571=CARTESIAN_POINT('Origin',(-345.775216000222,510.775216000222,0.));
#572=CARTESIAN_POINT('',(-339.651491643264,504.651491643264,-151.));
#573=CARTESIAN_POINT('Origin',(-339.651491643264,504.651491643264,0.));
#574=CARTESIAN_POINT('',(-351.89894035718,516.89894035718,-151.));
#575=CARTESIAN_POINT('Origin',(-351.89894035718,516.89894035718,0.));
#576=CARTESIAN_POINT('Origin',(-366.988419435818,531.988419435818,0.));
#577=CARTESIAN_POINT('',(-366.988419435818,531.988419435818,151.));
#578=CARTESIAN_POINT('Origin',(-366.988419435818,531.988419435818,0.));
#579=CARTESIAN_POINT('Origin',(-366.988419435818,531.988419435818,0.));
#580=CARTESIAN_POINT('',(-340.074338874726,505.074338874726,-150.));
#581=CARTESIAN_POINT('Origin',(-340.074338874726,505.074338874726,0.));
#582=CARTESIAN_POINT('Origin',(0.,30.,0.));
#583=CARTESIAN_POINT('',(0.,21.3397459621556,151.));
#584=CARTESIAN_POINT('Origin',(0.,21.3397459621556,0.));
#585=CARTESIAN_POINT('Origin',(0.,0.,0.));
#586=CARTESIAN_POINT('',(-151.,0.,1.8492166667125E-14));
#587=CARTESIAN_POINT('Origin',(0.,0.,0.));
#588=CARTESIAN_POINT('Origin',(7.81512193095888E-15,0.,-3.13705402101589E-15));
#589=CARTESIAN_POINT('',(-150.,0.,1.83697019872103E-14));
#590=CARTESIAN_POINT('Origin',(0.,0.,0.));
#591=CARTESIAN_POINT('Origin',(0.,0.,0.));
#592=CARTESIAN_POINT('',(-150.,21.9377422517015,0.));
#593=CARTESIAN_POINT('Origin',(0.,21.9377422517015,0.));
#594=CARTESIAN_POINT('Origin',(0.,30.,0.));
#595=CARTESIAN_POINT('Origin',(-366.988419435818,531.988419435818,0.));
#596=CARTESIAN_POINT('Origin',(-366.988419435818,531.988419435818,-7.81512193095888E-15));
#597=CARTESIAN_POINT('Origin',(0.,0.,0.));
#598=CARTESIAN_POINT('',(-150.,689.,1.83697019872103E-14));
#599=CARTESIAN_POINT('Origin',(0.,689.,0.));
#600=CARTESIAN_POINT('',(-150.,667.062257748299,0.));
#601=CARTESIAN_POINT('Origin',(0.,667.062257748299,0.));
#602=CARTESIAN_POINT('Origin',(0.,659.,0.));
#603=CARTESIAN_POINT('',(0.,667.660254037844,151.));
#604=CARTESIAN_POINT('Origin',(0.,667.660254037844,0.));
#605=CARTESIAN_POINT('Origin',(0.,0.,0.));
#606=CARTESIAN_POINT('',(-151.,689.,1.8492166667125E-14));
#607=CARTESIAN_POINT('Origin',(0.,689.,0.));
#608=CARTESIAN_POINT('Origin',(7.81512193095888E-15,689.,-3.13705402101589E-15));
#609=CARTESIAN_POINT('Origin',(0.,659.,0.));
#610=CARTESIAN_POINT('Origin',(-345.775216000222,510.775216000222,0.));
#611=CARTESIAN_POINT('Origin',(345.775216000222,510.775216000222,0.));
#612=UNCERTAINTY_MEASURE_WITH_UNIT(LENGTH_MEASURE(0.01),#616,
'DISTANCE_ACCURACY_VALUE',
'Maximum model space distance between geometric entities at asserted c
onnectivities');
#613=UNCERTAINTY_MEASURE_WITH_UNIT(LENGTH_MEASURE(1.E-6),#616,
'DISTANCE_ACCURACY_VALUE',
'Maximum model space distance between geometric entities at asserted c
onnectivities');
#614=(
GEOMETRIC_REPRESENTATION_CONTEXT(3)
GLOBAL_UNCERTAINTY_ASSIGNED_CONTEXT((#612))
GLOBAL_UNIT_ASSIGNED_CONTEXT((#616,#619,#617))
REPRESENTATION_CONTEXT('','3D')
);
#615=(
GEOMETRIC_REPRESENTATION_CONTEXT(3)
GLOBAL_UNCERTAINTY_ASSIGNED_CONTEXT((#613))
GLOBAL_UNIT_ASSIGNED_CONTEXT((#616,#619,#617))
REPRESENTATION_CONTEXT('','3D')
);
#616=(
LENGTH_UNIT()
NAMED_UNIT(*)
SI_UNIT(.MILLI.,.METRE.)
);
#617=(
NAMED_UNIT(*)
SI_UNIT($,.STERADIAN.)
SOLID_ANGLE_UNIT()
);
#618=DIMENSIONAL_EXPONENTS(0.,0.,0.,0.,0.,0.,0.);
#619=(
CONVERSION_BASED_UNIT('degree',#621)
NAMED_UNIT(#618)
PLANE_ANGLE_UNIT()
);
#620=(
NAMED_UNIT(*)
PLANE_ANGLE_UNIT()
SI_UNIT($,.RADIAN.)
);
#621=PLANE_ANGLE_MEASURE_WITH_UNIT(PLANE_ANGLE_MEASURE(0.01745329252),#620);
#622=SHAPE_DEFINITION_REPRESENTATION(#623,#624);
#623=PRODUCT_DEFINITION_SHAPE('',$,#626);
#624=SHAPE_REPRESENTATION('',(#340),#614);
#625=PRODUCT_DEFINITION_CONTEXT('part definition',#630,'design');
#626=PRODUCT_DEFINITION('4009003016276 - 3-fach Verteiler d300',
'4009003016276 - 3-fach Verteiler d300',#627,#625);
#627=PRODUCT_DEFINITION_FORMATION('',$,#632);
#628=PRODUCT_RELATED_PRODUCT_CATEGORY(
'4009003016276 - 3-fach Verteiler d300',
'4009003016276 - 3-fach Verteiler d300',(#632));
#629=APPLICATION_PROTOCOL_DEFINITION('international standard',
'automotive_design',2009,#630);
#630=APPLICATION_CONTEXT(
'Core Data for Automotive Mechanical Design Process');
#631=PRODUCT_CONTEXT('part definition',#630,'mechanical');
#632=PRODUCT('4009003016276 - 3-fach Verteiler d300',
'4009003016276 - 3-fach Verteiler d300',$,(#631));
#633=PRESENTATION_STYLE_ASSIGNMENT((#634));
#634=SURFACE_STYLE_USAGE(.BOTH.,#635);
#635=SURFACE_SIDE_STYLE($,(#636));
#636=SURFACE_STYLE_FILL_AREA(#637);
#637=FILL_AREA_STYLE($,(#638));
#638=FILL_AREA_STYLE_COLOUR($,#639);
#639=COLOUR_RGB('',0.749019607843137,0.749019607843137,0.749019607843137);
ENDSEC;
END-ISO-10303-21;
