ISO-10303-21;
HEADER;
/****************************************************************
 * Generated by software with PDE/Lib inside                    *
 * PDElib Version v51a, created Thu 12/14/2006                  *
 * International Technegroup Inc. (www.iti-oh.com)              *
 ****************************************************************/
FILE_DESCRIPTION((''),'2;1');
FILE_NAME('D:\\$work\\Schmelzer_Katalog\\Step\\Gabelstueck_2x45grad.stp','2007-12-18T07:09:19',('BBA'),(''),'Autodesk Inventor 2008','Autodesk Inventor 2008','');
FILE_SCHEMA(('AUTOMOTIVE_DESIGN { 1 0 10303 214 1 1 1 1 }'));
ENDSEC;
DATA;
#5=APPLICATION_CONTEXT('automotive design');
#6=APPLICATION_PROTOCOL_DEFINITION('International Standard','automotive_design',2001,#5);
#7=PRODUCT_CONTEXT('',#5,'mechanical');
#8=PRODUCT('4010008015667_Gabelstueck_2x45grad','4010008015667_Gabelstueck_2x45grad',$,(#7));
#9=PRODUCT_RELATED_PRODUCT_CATEGORY('part',$,(#8));
#10=PRODUCT_DEFINITION_FORMATION('',$,#8);
#11=PRODUCT_DEFINITION_CONTEXT('part definition',#5,'design');
#12=PRODUCT_DEFINITION('',$,#10,#11);
#18=(NAMED_UNIT(*)PLANE_ANGLE_UNIT()SI_UNIT($,.RADIAN.));
#19=DIMENSIONAL_EXPONENTS(0.0,0.0,0.0,0.0,0.0,0.0,0.0);
#20=PLANE_ANGLE_MEASURE_WITH_UNIT(PLANE_ANGLE_MEASURE(0.017453292500000),#18);
#24=(CONVERSION_BASED_UNIT('DEGREE',#20)NAMED_UNIT(#19)PLANE_ANGLE_UNIT());
#28=(NAMED_UNIT(*)SI_UNIT($,.STERADIAN.)SOLID_ANGLE_UNIT());
#32=(LENGTH_UNIT()NAMED_UNIT(*)SI_UNIT(.MILLI.,.METRE.));
#34=UNCERTAINTY_MEASURE_WITH_UNIT(LENGTH_MEASURE(0.010000000000000),#32,'DISTANCE_ACCURACY_VALUE','');
#36=(GEOMETRIC_REPRESENTATION_CONTEXT(3)GLOBAL_UNCERTAINTY_ASSIGNED_CONTEXT((#34))GLOBAL_UNIT_ASSIGNED_CONTEXT((#24,#28,#32))REPRESENTATION_CONTEXT('None','None'));
#37=AXIS2_PLACEMENT_3D('',#38,#39,#40);
#38=CARTESIAN_POINT('',(0.0,0.0,0.0));
#39=DIRECTION('',(0.0,0.0,1.0));
#40=DIRECTION('',(1.0,0.0,0.0));
#41=SHAPE_REPRESENTATION('',(#37),#36);
#42=PRODUCT_DEFINITION_SHAPE('','',#12);
#43=SHAPE_DEFINITION_REPRESENTATION(#42,#41);
#49=(NAMED_UNIT(*)PLANE_ANGLE_UNIT()SI_UNIT($,.RADIAN.));
#50=DIMENSIONAL_EXPONENTS(0.0,0.0,0.0,0.0,0.0,0.0,0.0);
#51=PLANE_ANGLE_MEASURE_WITH_UNIT(PLANE_ANGLE_MEASURE(0.017453292500000),#49);
#55=(CONVERSION_BASED_UNIT('DEGREE',#51)NAMED_UNIT(#50)PLANE_ANGLE_UNIT());
#59=(NAMED_UNIT(*)SI_UNIT($,.STERADIAN.)SOLID_ANGLE_UNIT());
#63=(LENGTH_UNIT()NAMED_UNIT(*)SI_UNIT(.MILLI.,.METRE.));
#65=UNCERTAINTY_MEASURE_WITH_UNIT(LENGTH_MEASURE(0.000001000000000),#63,'DISTANCE_ACCURACY_VALUE','');
#67=(GEOMETRIC_REPRESENTATION_CONTEXT(3)GLOBAL_UNCERTAINTY_ASSIGNED_CONTEXT((#65))GLOBAL_UNIT_ASSIGNED_CONTEXT((#55,#59,#63))REPRESENTATION_CONTEXT('','3D'));
#68=CARTESIAN_POINT('',(0.0,140.360696065529990,59.639303934470298));
#69=DIRECTION('',(0.0,-0.707106781186548,0.707106781186547));
#70=DIRECTION('',(1.0,0.0,0.0));
#71=AXIS2_PLACEMENT_3D('',#68,#69,#70);
#72=PLANE('',#71);
#73=CARTESIAN_POINT('',(-80.0,140.360696065529990,59.639303934470298));
#74=VERTEX_POINT('',#73);
#75=CARTESIAN_POINT('',(0.0,140.360696065529990,59.639303934470298));
#76=DIRECTION('',(0.0,0.707106781186548,-0.707106781186547));
#77=DIRECTION('',(-1.0,0.0,0.0));
#78=AXIS2_PLACEMENT_3D('',#75,#76,#77);
#79=CIRCLE('',#78,80.0);
#80=EDGE_CURVE('',#74,#74,#79,.T.);
#81=ORIENTED_EDGE('',*,*,#80,.F.);
#82=EDGE_LOOP('',(#81));
#83=FACE_OUTER_BOUND('',#82,.T.);
#84=CARTESIAN_POINT('',(0.0,87.327687476538699,6.606295345479252));
#85=VERTEX_POINT('',#84);
#86=CARTESIAN_POINT('',(0.0,140.360696065529990,59.639303934470298));
#87=DIRECTION('',(0.0,-0.707106781186548,0.707106781186547));
#88=DIRECTION('',(0.0,-0.707106781186547,-0.707106781186548));
#89=AXIS2_PLACEMENT_3D('',#86,#87,#88);
#90=CIRCLE('',#89,75.000000000000014);
#91=EDGE_CURVE('',#85,#85,#90,.T.);
#92=ORIENTED_EDGE('',*,*,#91,.F.);
#93=EDGE_LOOP('',(#92));
#94=FACE_BOUND('',#93,.T.);
#95=ADVANCED_FACE('',(#83,#94),#72,.T.);
#96=CARTESIAN_POINT('',(0.0,141.421356237310020,58.578643762690504));
#97=DIRECTION('',(0.0,0.707106781186548,-0.707106781186547));
#98=DIRECTION('',(1.0,0.0,0.0));
#99=AXIS2_PLACEMENT_3D('',#96,#97,#98);
#100=CYLINDRICAL_SURFACE('',#99,80.0);
#101=ORIENTED_EDGE('',*,*,#80,.T.);
#102=EDGE_LOOP('',(#101));
#103=FACE_OUTER_BOUND('',#102,.T.);
#104=CARTESIAN_POINT('',(80.0,141.421356237310020,58.578643762690504));
#105=VERTEX_POINT('',#104);
#106=CARTESIAN_POINT('',(0.0,141.421356237310020,58.578643762690504));
#107=DIRECTION('',(0.0,-0.707106781186548,0.707106781186547));
#108=DIRECTION('',(1.0,0.0,0.0));
#109=AXIS2_PLACEMENT_3D('',#106,#107,#108);
#110=CIRCLE('',#109,80.0);
#111=EDGE_CURVE('',#105,#105,#110,.T.);
#112=ORIENTED_EDGE('',*,*,#111,.T.);
#113=EDGE_LOOP('',(#112));
#114=FACE_BOUND('',#113,.T.);
#115=ADVANCED_FACE('',(#103,#114),#100,.T.);
#116=CARTESIAN_POINT('',(0.0,141.421356237310020,58.578643762690504));
#117=DIRECTION('',(0.0,0.707106781186548,-0.707106781186547));
#118=DIRECTION('',(1.0,0.0,0.0));
#119=AXIS2_PLACEMENT_3D('',#116,#117,#118);
#120=CYLINDRICAL_SURFACE('',#119,73.500000000000000);
#121=CARTESIAN_POINT('',(73.500000000000000,141.421356237310020,58.578643762690504));
#122=VERTEX_POINT('',#121);
#123=CARTESIAN_POINT('',(0.0,141.421356237310020,58.578643762690504));
#124=DIRECTION('',(0.0,-0.707106781186548,0.707106781186547));
#125=DIRECTION('',(1.0,0.0,0.0));
#126=AXIS2_PLACEMENT_3D('',#123,#124,#125);
#127=CIRCLE('',#126,73.500000000000000);
#128=EDGE_CURVE('',#122,#122,#127,.T.);
#129=ORIENTED_EDGE('',*,*,#128,.F.);
#130=EDGE_LOOP('',(#129));
#131=FACE_OUTER_BOUND('',#130,.T.);
#132=CARTESIAN_POINT('',(-73.500000000000000,1.387779E-014,200.0));
#133=VERTEX_POINT('',#132);
#134=CARTESIAN_POINT('',(73.500000000000000,2.162439E-013,200.0));
#135=VERTEX_POINT('',#134);
#136=CARTESIAN_POINT('',(0.0,1.387779E-014,200.0));
#137=DIRECTION('',(0.0,0.382683432365090,-0.923879532511287));
#138=DIRECTION('',(0.0,-0.923879532511287,-0.382683432365090));
#139=AXIS2_PLACEMENT_3D('',#136,#137,#138);
#140=ELLIPSE('',#139,79.555826721491016,73.500000000000014);
#141=EDGE_CURVE('',#133,#135,#140,.T.);
#142=ORIENTED_EDGE('',*,*,#141,.F.);
#143=CARTESIAN_POINT('',(0.0,0.0,200.0));
#144=DIRECTION('',(0.0,1.0,0.0));
#145=DIRECTION('',(0.0,0.0,1.0));
#146=AXIS2_PLACEMENT_3D('',#143,#144,#145);
#147=ELLIPSE('',#146,103.944696834422980,73.500000000000000);
#148=EDGE_CURVE('',#135,#133,#147,.T.);
#149=ORIENTED_EDGE('',*,*,#148,.F.);
#150=EDGE_LOOP('',(#142,#149));
#151=FACE_BOUND('',#150,.T.);
#152=ADVANCED_FACE('',(#131,#151),#120,.F.);
#153=CARTESIAN_POINT('',(0.0,0.0,300.0));
#154=DIRECTION('',(0.0,0.0,1.0));
#155=DIRECTION('',(-1.0,0.0,0.0));
#156=AXIS2_PLACEMENT_3D('',#153,#154,#155);
#157=CYLINDRICAL_SURFACE('',#156,73.500000000000000);
#158=CARTESIAN_POINT('',(-73.500000000000000,0.0,300.0));
#159=VERTEX_POINT('',#158);
#160=CARTESIAN_POINT('',(0.0,0.0,300.0));
#161=DIRECTION('',(0.0,0.0,-1.0));
#162=DIRECTION('',(-1.0,0.0,0.0));
#163=AXIS2_PLACEMENT_3D('',#160,#161,#162);
#164=CIRCLE('',#163,73.500000000000000);
#165=EDGE_CURVE('',#159,#159,#164,.T.);
#166=ORIENTED_EDGE('',*,*,#165,.F.);
#167=EDGE_LOOP('',(#166));
#168=FACE_OUTER_BOUND('',#167,.T.);
#169=ORIENTED_EDGE('',*,*,#141,.T.);
#170=CARTESIAN_POINT('',(0.0,0.0,200.0));
#171=DIRECTION('',(0.0,-0.382683432365089,-0.923879532511287));
#172=DIRECTION('',(0.0,0.923879532511287,-0.382683432365089));
#173=AXIS2_PLACEMENT_3D('',#170,#171,#172);
#174=ELLIPSE('',#173,79.555826721491002,73.500000000000014);
#175=EDGE_CURVE('',#135,#133,#174,.T.);
#176=ORIENTED_EDGE('',*,*,#175,.T.);
#177=EDGE_LOOP('',(#169,#176));
#178=FACE_BOUND('',#177,.T.);
#179=ADVANCED_FACE('',(#168,#178),#157,.F.);
#180=CARTESIAN_POINT('',(0.0,-141.421356237309000,58.578643762690405));
#181=DIRECTION('',(0.0,-0.707106781186547,-0.707106781186548));
#182=DIRECTION('',(1.0,0.0,0.0));
#183=AXIS2_PLACEMENT_3D('',#180,#181,#182);
#184=CYLINDRICAL_SURFACE('',#183,73.500000000000000);
#185=CARTESIAN_POINT('',(73.500000000000000,-141.421356237309000,58.578643762690405));
#186=VERTEX_POINT('',#185);
#187=CARTESIAN_POINT('',(0.0,-141.421356237309000,58.578643762690405));
#188=DIRECTION('',(0.0,0.707106781186547,0.707106781186548));
#189=DIRECTION('',(1.0,0.0,0.0));
#190=AXIS2_PLACEMENT_3D('',#187,#188,#189);
#191=CIRCLE('',#190,73.500000000000000);
#192=EDGE_CURVE('',#186,#186,#191,.T.);
#193=ORIENTED_EDGE('',*,*,#192,.F.);
#194=EDGE_LOOP('',(#193));
#195=FACE_OUTER_BOUND('',#194,.T.);
#196=ORIENTED_EDGE('',*,*,#148,.T.);
#197=ORIENTED_EDGE('',*,*,#175,.F.);
#198=EDGE_LOOP('',(#196,#197));
#199=FACE_BOUND('',#198,.T.);
#200=ADVANCED_FACE('',(#195,#199),#184,.F.);
#201=CARTESIAN_POINT('',(0.0,141.421356237310020,58.578643762690504));
#202=DIRECTION('',(0.0,0.707106781186548,-0.707106781186547));
#203=DIRECTION('',(-1.0,0.0,0.0));
#204=AXIS2_PLACEMENT_3D('',#201,#202,#203);
#205=PLANE('',#204);
#206=ORIENTED_EDGE('',*,*,#111,.F.);
#207=EDGE_LOOP('',(#206));
#208=FACE_OUTER_BOUND('',#207,.T.);
#209=ORIENTED_EDGE('',*,*,#128,.T.);
#210=EDGE_LOOP('',(#209));
#211=FACE_BOUND('',#210,.T.);
#212=ADVANCED_FACE('',(#208,#211),#205,.T.);
#213=CARTESIAN_POINT('',(0.0,-141.421356237309000,58.578643762690405));
#214=DIRECTION('',(0.0,-0.707106781186547,-0.707106781186548));
#215=DIRECTION('',(-1.0,0.0,0.0));
#216=AXIS2_PLACEMENT_3D('',#213,#214,#215);
#217=PLANE('',#216);
#218=CARTESIAN_POINT('',(80.0,-141.421356237309000,58.578643762690405));
#219=VERTEX_POINT('',#218);
#220=CARTESIAN_POINT('',(0.0,-141.421356237309000,58.578643762690405));
#221=DIRECTION('',(0.0,0.707106781186547,0.707106781186548));
#222=DIRECTION('',(1.0,0.0,0.0));
#223=AXIS2_PLACEMENT_3D('',#220,#221,#222);
#224=CIRCLE('',#223,80.0);
#225=EDGE_CURVE('',#219,#219,#224,.T.);
#226=ORIENTED_EDGE('',*,*,#225,.F.);
#227=EDGE_LOOP('',(#226));
#228=FACE_OUTER_BOUND('',#227,.T.);
#229=ORIENTED_EDGE('',*,*,#192,.T.);
#230=EDGE_LOOP('',(#229));
#231=FACE_BOUND('',#230,.T.);
#232=ADVANCED_FACE('',(#228,#231),#217,.T.);
#233=CARTESIAN_POINT('',(0.0,0.0,200.0));
#234=DIRECTION('',(0.0,0.0,-1.0));
#235=DIRECTION('',(1.0,0.0,0.0));
#236=AXIS2_PLACEMENT_3D('',#233,#234,#235);
#237=CYLINDRICAL_SURFACE('',#236,75.0);
#238=CARTESIAN_POINT('',(-75.0,0.0,298.500000000000000));
#239=VERTEX_POINT('',#238);
#240=CARTESIAN_POINT('',(0.0,0.0,298.500000000000000));
#241=DIRECTION('',(0.0,0.0,-1.0));
#242=DIRECTION('',(-1.0,0.0,0.0));
#243=AXIS2_PLACEMENT_3D('',#240,#241,#242);
#244=CIRCLE('',#243,75.0);
#245=EDGE_CURVE('',#239,#239,#244,.F.);
#246=ORIENTED_EDGE('',*,*,#245,.F.);
#247=EDGE_LOOP('',(#246));
#248=FACE_OUTER_BOUND('',#247,.T.);
#249=CARTESIAN_POINT('',(75.0,0.0,200.0));
#250=VERTEX_POINT('',#249);
#251=CARTESIAN_POINT('',(-75.0,0.0,200.0));
#252=VERTEX_POINT('',#251);
#253=CARTESIAN_POINT('',(0.0,0.0,200.0));
#254=DIRECTION('',(0.0,0.382683432365090,0.923879532511287));
#255=DIRECTION('',(0.0,-0.923879532511287,0.382683432365090));
#256=AXIS2_PLACEMENT_3D('',#253,#254,#255);
#257=ELLIPSE('',#256,81.179415021929515,75.000000000000014);
#258=EDGE_CURVE('',#250,#252,#257,.F.);
#259=ORIENTED_EDGE('',*,*,#258,.F.);
#260=CARTESIAN_POINT('',(0.0,0.0,200.0));
#261=DIRECTION('',(0.0,-0.382683432365090,0.923879532511287));
#262=DIRECTION('',(0.0,0.923879532511287,0.382683432365090));
#263=AXIS2_PLACEMENT_3D('',#260,#261,#262);
#264=ELLIPSE('',#263,81.179415021929515,75.000000000000014);
#265=EDGE_CURVE('',#252,#250,#264,.F.);
#266=ORIENTED_EDGE('',*,*,#265,.F.);
#267=EDGE_LOOP('',(#259,#266));
#268=FACE_BOUND('',#267,.T.);
#269=ADVANCED_FACE('',(#248,#268),#237,.T.);
#270=CARTESIAN_POINT('',(0.0,0.0,298.500000000000000));
#271=DIRECTION('',(0.0,0.0,-1.0));
#272=DIRECTION('',(-1.0,0.0,0.0));
#273=AXIS2_PLACEMENT_3D('',#270,#271,#272);
#274=PLANE('',#273);
#275=CARTESIAN_POINT('',(80.0,0.0,298.500000000000000));
#276=VERTEX_POINT('',#275);
#277=CARTESIAN_POINT('',(0.0,0.0,298.500000000000000));
#278=DIRECTION('',(0.0,0.0,1.0));
#279=DIRECTION('',(1.0,0.0,0.0));
#280=AXIS2_PLACEMENT_3D('',#277,#278,#279);
#281=CIRCLE('',#280,80.0);
#282=EDGE_CURVE('',#276,#276,#281,.T.);
#283=ORIENTED_EDGE('',*,*,#282,.F.);
#284=EDGE_LOOP('',(#283));
#285=FACE_OUTER_BOUND('',#284,.T.);
#286=ORIENTED_EDGE('',*,*,#245,.T.);
#287=EDGE_LOOP('',(#286));
#288=FACE_BOUND('',#287,.T.);
#289=ADVANCED_FACE('',(#285,#288),#274,.T.);
#290=CARTESIAN_POINT('',(0.0,0.0,300.0));
#291=DIRECTION('',(0.0,0.0,1.0));
#292=DIRECTION('',(1.0,0.0,0.0));
#293=AXIS2_PLACEMENT_3D('',#290,#291,#292);
#294=PLANE('',#293);
#295=CARTESIAN_POINT('',(-80.0,0.0,300.0));
#296=VERTEX_POINT('',#295);
#297=CARTESIAN_POINT('',(0.0,0.0,300.0));
#298=DIRECTION('',(0.0,0.0,-1.0));
#299=DIRECTION('',(-1.0,0.0,0.0));
#300=AXIS2_PLACEMENT_3D('',#297,#298,#299);
#301=CIRCLE('',#300,80.0);
#302=EDGE_CURVE('',#296,#296,#301,.T.);
#303=ORIENTED_EDGE('',*,*,#302,.F.);
#304=EDGE_LOOP('',(#303));
#305=FACE_OUTER_BOUND('',#304,.T.);
#306=ORIENTED_EDGE('',*,*,#165,.T.);
#307=EDGE_LOOP('',(#306));
#308=FACE_BOUND('',#307,.T.);
#309=ADVANCED_FACE('',(#305,#308),#294,.T.);
#310=CARTESIAN_POINT('',(0.0,141.421356237310020,58.578643762690504));
#311=DIRECTION('',(0.0,0.707106781186548,-0.707106781186547));
#312=DIRECTION('',(1.0,0.0,0.0));
#313=AXIS2_PLACEMENT_3D('',#310,#311,#312);
#314=CYLINDRICAL_SURFACE('',#313,75.0);
#315=ORIENTED_EDGE('',*,*,#91,.T.);
#316=EDGE_LOOP('',(#315));
#317=FACE_OUTER_BOUND('',#316,.T.);
#318=CARTESIAN_POINT('',(0.0,0.0,200.0));
#319=DIRECTION('',(0.0,1.0,0.0));
#320=DIRECTION('',(0.0,0.0,1.0));
#321=AXIS2_PLACEMENT_3D('',#318,#319,#320);
#322=ELLIPSE('',#321,106.066017177981990,75.0);
#323=EDGE_CURVE('',#250,#252,#322,.T.);
#324=ORIENTED_EDGE('',*,*,#323,.T.);
#325=ORIENTED_EDGE('',*,*,#265,.T.);
#326=EDGE_LOOP('',(#324,#325));
#327=FACE_BOUND('',#326,.T.);
#328=ADVANCED_FACE('',(#317,#327),#314,.T.);
#329=CARTESIAN_POINT('',(0.0,-141.421356237309000,58.578643762690405));
#330=DIRECTION('',(0.0,-0.707106781186547,-0.707106781186548));
#331=DIRECTION('',(1.0,0.0,0.0));
#332=AXIS2_PLACEMENT_3D('',#329,#330,#331);
#333=CYLINDRICAL_SURFACE('',#332,75.0);
#334=CARTESIAN_POINT('',(0.0,-193.393704654521000,112.672312523461000));
#335=VERTEX_POINT('',#334);
#336=CARTESIAN_POINT('',(0.0,-140.360696065529990,59.639303934470192));
#337=DIRECTION('',(0.0,0.707106781186547,0.707106781186548));
#338=DIRECTION('',(0.0,-0.707106781186548,0.707106781186547));
#339=AXIS2_PLACEMENT_3D('',#336,#337,#338);
#340=CIRCLE('',#339,75.000000000000014);
#341=EDGE_CURVE('',#335,#335,#340,.F.);
#342=ORIENTED_EDGE('',*,*,#341,.F.);
#343=EDGE_LOOP('',(#342));
#344=FACE_OUTER_BOUND('',#343,.T.);
#345=ORIENTED_EDGE('',*,*,#323,.F.);
#346=ORIENTED_EDGE('',*,*,#258,.T.);
#347=EDGE_LOOP('',(#345,#346));
#348=FACE_BOUND('',#347,.T.);
#349=ADVANCED_FACE('',(#344,#348),#333,.T.);
#350=CARTESIAN_POINT('',(0.0,0.0,300.0));
#351=DIRECTION('',(0.0,0.0,1.0));
#352=DIRECTION('',(-1.0,0.0,0.0));
#353=AXIS2_PLACEMENT_3D('',#350,#351,#352);
#354=CYLINDRICAL_SURFACE('',#353,80.0);
#355=ORIENTED_EDGE('',*,*,#282,.T.);
#356=EDGE_LOOP('',(#355));
#357=FACE_OUTER_BOUND('',#356,.T.);
#358=ORIENTED_EDGE('',*,*,#302,.T.);
#359=EDGE_LOOP('',(#358));
#360=FACE_BOUND('',#359,.T.);
#361=ADVANCED_FACE('',(#357,#360),#354,.T.);
#362=CARTESIAN_POINT('',(0.0,-140.360696065529990,59.639303934470192));
#363=DIRECTION('',(0.0,0.707106781186547,0.707106781186548));
#364=DIRECTION('',(1.0,0.0,0.0));
#365=AXIS2_PLACEMENT_3D('',#362,#363,#364);
#366=PLANE('',#365);
#367=CARTESIAN_POINT('',(-80.0,-140.360696065529990,59.639303934470192));
#368=VERTEX_POINT('',#367);
#369=CARTESIAN_POINT('',(0.0,-140.360696065529990,59.639303934470192));
#370=DIRECTION('',(0.0,-0.707106781186547,-0.707106781186548));
#371=DIRECTION('',(-1.0,0.0,0.0));
#372=AXIS2_PLACEMENT_3D('',#369,#370,#371);
#373=CIRCLE('',#372,80.0);
#374=EDGE_CURVE('',#368,#368,#373,.T.);
#375=ORIENTED_EDGE('',*,*,#374,.F.);
#376=EDGE_LOOP('',(#375));
#377=FACE_OUTER_BOUND('',#376,.T.);
#378=ORIENTED_EDGE('',*,*,#341,.T.);
#379=EDGE_LOOP('',(#378));
#380=FACE_BOUND('',#379,.T.);
#381=ADVANCED_FACE('',(#377,#380),#366,.T.);
#382=CARTESIAN_POINT('',(0.0,-141.421356237309000,58.578643762690405));
#383=DIRECTION('',(0.0,-0.707106781186547,-0.707106781186548));
#384=DIRECTION('',(1.0,0.0,0.0));
#385=AXIS2_PLACEMENT_3D('',#382,#383,#384);
#386=CYLINDRICAL_SURFACE('',#385,80.0);
#387=ORIENTED_EDGE('',*,*,#374,.T.);
#388=EDGE_LOOP('',(#387));
#389=FACE_OUTER_BOUND('',#388,.T.);
#390=ORIENTED_EDGE('',*,*,#225,.T.);
#391=EDGE_LOOP('',(#390));
#392=FACE_BOUND('',#391,.T.);
#393=ADVANCED_FACE('',(#389,#392),#386,.T.);
#394=CLOSED_SHELL('',(#95,#115,#152,#179,#200,#212,#232,#269,#289,#309,#328,#349,#361,#381,#393));
#395=MANIFOLD_SOLID_BREP('',#394);
#396=COLOUR_RGB('Standard',0.752941012382507,0.752941012382507,0.752941012382507);
#397=FILL_AREA_STYLE_COLOUR('Standard',#396);
#398=FILL_AREA_STYLE('Standard',(#397));
#399=SURFACE_STYLE_FILL_AREA(#398);
#400=SURFACE_SIDE_STYLE('Standard',(#399));
#401=SURFACE_STYLE_USAGE(.BOTH.,#400);
#402=PRESENTATION_STYLE_ASSIGNMENT((#401));
#403=STYLED_ITEM('',(#402),#395);
#404=MECHANICAL_DESIGN_GEOMETRIC_PRESENTATION_REPRESENTATION('',(#403),#36);
#405=ADVANCED_BREP_SHAPE_REPRESENTATION('ABSR',(#395),#36);
#406=SHAPE_REPRESENTATION_RELATIONSHIP('SRR','None',#405,#41);
ENDSEC;
END-ISO-10303-21;
