ISO-10303-21;
HEADER;
/* Generated by software containing ST-Developer
 * from STEP Tools, Inc. (www.steptools.com) 
 */

FILE_DESCRIPTION(
/* description */ (''),
/* implementation_level */ '2;1');

FILE_NAME(
/* name */ 'E:\\Standardrohre\\4010014015890 Rohr 300x1 l=250.stp',
/* time_stamp */ '2015-05-28T12:00:05+02:00',
/* author */ ('dpurucker'),
/* organization */ (''),
/* preprocessor_version */ 'ST-DEVELOPER v15.6',
/* originating_system */ 'Autodesk Inventor 2015',
/* authorisation */ '');

FILE_SCHEMA (('AUTOMOTIVE_DESIGN { 1 0 10303 214 3 1 1 }'));
ENDSEC;

DATA;
#10=MECHANICAL_DESIGN_GEOMETRIC_PRESENTATION_REPRESENTATION('',(#13),#183);
#11=SHAPE_REPRESENTATION_RELATIONSHIP('SRR','None',#192,#12);
#12=ADVANCED_BREP_SHAPE_REPRESENTATION($,(#14),#182);
#13=STYLED_ITEM('',(#201),#14);
#14=MANIFOLD_SOLID_BREP('Volumenk\X\F6rper1',#103);
#15=PLANE('',#108);
#16=PLANE('',#113);
#17=PLANE('',#118);
#18=PLANE('',#120);
#19=FACE_BOUND('',#36,.T.);
#20=FACE_BOUND('',#38,.T.);
#21=FACE_BOUND('',#40,.T.);
#22=FACE_BOUND('',#42,.T.);
#23=FACE_BOUND('',#44,.T.);
#24=FACE_BOUND('',#46,.T.);
#25=FACE_BOUND('',#48,.T.);
#26=FACE_BOUND('',#50,.T.);
#27=FACE_OUTER_BOUND('',#35,.T.);
#28=FACE_OUTER_BOUND('',#37,.T.);
#29=FACE_OUTER_BOUND('',#39,.T.);
#30=FACE_OUTER_BOUND('',#41,.T.);
#31=FACE_OUTER_BOUND('',#43,.T.);
#32=FACE_OUTER_BOUND('',#45,.T.);
#33=FACE_OUTER_BOUND('',#47,.T.);
#34=FACE_OUTER_BOUND('',#49,.T.);
#35=EDGE_LOOP('',(#75));
#36=EDGE_LOOP('',(#76));
#37=EDGE_LOOP('',(#77));
#38=EDGE_LOOP('',(#78));
#39=EDGE_LOOP('',(#79));
#40=EDGE_LOOP('',(#80));
#41=EDGE_LOOP('',(#81));
#42=EDGE_LOOP('',(#82));
#43=EDGE_LOOP('',(#83));
#44=EDGE_LOOP('',(#84));
#45=EDGE_LOOP('',(#85));
#46=EDGE_LOOP('',(#86));
#47=EDGE_LOOP('',(#87));
#48=EDGE_LOOP('',(#88));
#49=EDGE_LOOP('',(#89));
#50=EDGE_LOOP('',(#90));
#51=CIRCLE('',#106,156.5);
#52=CIRCLE('',#107,156.5);
#53=CIRCLE('',#109,150.5);
#54=CIRCLE('',#111,156.5);
#55=CIRCLE('',#112,156.5);
#56=CIRCLE('',#114,150.5);
#57=CIRCLE('',#116,149.5);
#58=CIRCLE('',#117,149.5);
#59=VERTEX_POINT('',#157);
#60=VERTEX_POINT('',#159);
#61=VERTEX_POINT('',#162);
#62=VERTEX_POINT('',#165);
#63=VERTEX_POINT('',#167);
#64=VERTEX_POINT('',#170);
#65=VERTEX_POINT('',#173);
#66=VERTEX_POINT('',#175);
#67=EDGE_CURVE('',#59,#59,#51,.T.);
#68=EDGE_CURVE('',#60,#60,#52,.T.);
#69=EDGE_CURVE('',#61,#61,#53,.T.);
#70=EDGE_CURVE('',#62,#62,#54,.T.);
#71=EDGE_CURVE('',#63,#63,#55,.T.);
#72=EDGE_CURVE('',#64,#64,#56,.T.);
#73=EDGE_CURVE('',#65,#65,#57,.T.);
#74=EDGE_CURVE('',#66,#66,#58,.T.);
#75=ORIENTED_EDGE('',*,*,#67,.T.);
#76=ORIENTED_EDGE('',*,*,#68,.F.);
#77=ORIENTED_EDGE('',*,*,#67,.F.);
#78=ORIENTED_EDGE('',*,*,#69,.F.);
#79=ORIENTED_EDGE('',*,*,#70,.F.);
#80=ORIENTED_EDGE('',*,*,#71,.T.);
#81=ORIENTED_EDGE('',*,*,#70,.T.);
#82=ORIENTED_EDGE('',*,*,#72,.F.);
#83=ORIENTED_EDGE('',*,*,#73,.F.);
#84=ORIENTED_EDGE('',*,*,#74,.F.);
#85=ORIENTED_EDGE('',*,*,#68,.T.);
#86=ORIENTED_EDGE('',*,*,#73,.T.);
#87=ORIENTED_EDGE('',*,*,#69,.T.);
#88=ORIENTED_EDGE('',*,*,#72,.T.);
#89=ORIENTED_EDGE('',*,*,#71,.F.);
#90=ORIENTED_EDGE('',*,*,#74,.T.);
#91=CYLINDRICAL_SURFACE('',#105,156.5);
#92=CYLINDRICAL_SURFACE('',#110,156.5);
#93=CYLINDRICAL_SURFACE('',#115,149.5);
#94=CYLINDRICAL_SURFACE('',#119,150.5);
#95=ADVANCED_FACE('',(#27,#19),#91,.T.);
#96=ADVANCED_FACE('',(#28,#20),#15,.T.);
#97=ADVANCED_FACE('',(#29,#21),#92,.T.);
#98=ADVANCED_FACE('',(#30,#22),#16,.F.);
#99=ADVANCED_FACE('',(#31,#23),#93,.F.);
#100=ADVANCED_FACE('',(#32,#24),#17,.F.);
#101=ADVANCED_FACE('',(#33,#25),#94,.T.);
#102=ADVANCED_FACE('',(#34,#26),#18,.T.);
#103=CLOSED_SHELL('',(#95,#96,#97,#98,#99,#100,#101,#102));
#104=AXIS2_PLACEMENT_3D('placement',#155,#121,#122);
#105=AXIS2_PLACEMENT_3D('',#156,#123,#124);
#106=AXIS2_PLACEMENT_3D('',#158,#125,#126);
#107=AXIS2_PLACEMENT_3D('',#160,#127,#128);
#108=AXIS2_PLACEMENT_3D('',#161,#129,#130);
#109=AXIS2_PLACEMENT_3D('',#163,#131,#132);
#110=AXIS2_PLACEMENT_3D('',#164,#133,#134);
#111=AXIS2_PLACEMENT_3D('',#166,#135,#136);
#112=AXIS2_PLACEMENT_3D('',#168,#137,#138);
#113=AXIS2_PLACEMENT_3D('',#169,#139,#140);
#114=AXIS2_PLACEMENT_3D('',#171,#141,#142);
#115=AXIS2_PLACEMENT_3D('',#172,#143,#144);
#116=AXIS2_PLACEMENT_3D('',#174,#145,#146);
#117=AXIS2_PLACEMENT_3D('',#176,#147,#148);
#118=AXIS2_PLACEMENT_3D('',#177,#149,#150);
#119=AXIS2_PLACEMENT_3D('',#178,#151,#152);
#120=AXIS2_PLACEMENT_3D('',#179,#153,#154);
#121=DIRECTION('axis',(0.,0.,1.));
#122=DIRECTION('refdir',(1.,0.,0.));
#123=DIRECTION('center_axis',(0.,-1.,0.));
#124=DIRECTION('ref_axis',(-1.,0.,0.));
#125=DIRECTION('center_axis',(0.,-1.,0.));
#126=DIRECTION('ref_axis',(-1.,0.,0.));
#127=DIRECTION('center_axis',(0.,-1.,0.));
#128=DIRECTION('ref_axis',(-1.,0.,0.));
#129=DIRECTION('center_axis',(0.,1.,0.));
#130=DIRECTION('ref_axis',(0.,0.,1.));
#131=DIRECTION('center_axis',(0.,1.,0.));
#132=DIRECTION('ref_axis',(1.,0.,0.));
#133=DIRECTION('center_axis',(0.,-1.,0.));
#134=DIRECTION('ref_axis',(-1.,0.,0.));
#135=DIRECTION('center_axis',(0.,-1.,0.));
#136=DIRECTION('ref_axis',(-1.,0.,0.));
#137=DIRECTION('center_axis',(0.,-1.,0.));
#138=DIRECTION('ref_axis',(-1.,0.,0.));
#139=DIRECTION('center_axis',(0.,1.,0.));
#140=DIRECTION('ref_axis',(0.,0.,1.));
#141=DIRECTION('center_axis',(0.,-1.,0.));
#142=DIRECTION('ref_axis',(1.,0.,0.));
#143=DIRECTION('center_axis',(0.,1.,0.));
#144=DIRECTION('ref_axis',(1.,0.,0.));
#145=DIRECTION('center_axis',(0.,1.,0.));
#146=DIRECTION('ref_axis',(1.,0.,0.));
#147=DIRECTION('center_axis',(0.,-1.,0.));
#148=DIRECTION('ref_axis',(1.,0.,0.));
#149=DIRECTION('center_axis',(0.,1.,0.));
#150=DIRECTION('ref_axis',(0.,0.,1.));
#151=DIRECTION('center_axis',(0.,1.,0.));
#152=DIRECTION('ref_axis',(1.,0.,0.));
#153=DIRECTION('center_axis',(0.,1.,0.));
#154=DIRECTION('ref_axis',(0.,0.,1.));
#155=CARTESIAN_POINT('',(0.,0.,0.));
#156=CARTESIAN_POINT('Origin',(0.,-119.,0.));
#157=CARTESIAN_POINT('',(156.5,-118.,-1.91657224066561E-14));
#158=CARTESIAN_POINT('Origin',(0.,-118.,0.));
#159=CARTESIAN_POINT('',(156.5,-119.,-1.91657224066561E-14));
#160=CARTESIAN_POINT('Origin',(0.,-119.,0.));
#161=CARTESIAN_POINT('Origin',(-7.65075576613593E-15,-118.,-3.02680611612396E-15));
#162=CARTESIAN_POINT('',(150.5,-118.,-1.84309343271677E-14));
#163=CARTESIAN_POINT('Origin',(0.,-118.,0.));
#164=CARTESIAN_POINT('Origin',(0.,119.,0.));
#165=CARTESIAN_POINT('',(156.5,118.,-1.91657224066561E-14));
#166=CARTESIAN_POINT('Origin',(0.,118.,0.));
#167=CARTESIAN_POINT('',(156.5,119.,-1.91657224066561E-14));
#168=CARTESIAN_POINT('Origin',(0.,119.,0.));
#169=CARTESIAN_POINT('Origin',(-7.65075576613593E-15,118.,-3.02680611612396E-15));
#170=CARTESIAN_POINT('',(150.5,118.,-1.84309343271677E-14));
#171=CARTESIAN_POINT('Origin',(0.,118.,0.));
#172=CARTESIAN_POINT('Origin',(0.,0.,0.));
#173=CARTESIAN_POINT('',(-149.5,-119.,1.83084696472529E-14));
#174=CARTESIAN_POINT('Origin',(0.,-119.,0.));
#175=CARTESIAN_POINT('',(-149.5,119.,1.83084696472529E-14));
#176=CARTESIAN_POINT('Origin',(0.,119.,0.));
#177=CARTESIAN_POINT('Origin',(7.83086344872665E-15,-119.,-3.14747612739801E-15));
#178=CARTESIAN_POINT('Origin',(0.,0.,0.));
#179=CARTESIAN_POINT('Origin',(7.83086344872665E-15,119.,-3.14747612739801E-15));
#180=UNCERTAINTY_MEASURE_WITH_UNIT(LENGTH_MEASURE(0.01),#184,
'DISTANCE_ACCURACY_VALUE',
'Maximum model space distance between geometric entities at asserted c
onnectivities');
#181=UNCERTAINTY_MEASURE_WITH_UNIT(LENGTH_MEASURE(1.E-6),#184,
'DISTANCE_ACCURACY_VALUE',
'Maximum model space distance between geometric entities at asserted c
onnectivities');
#182=(
GEOMETRIC_REPRESENTATION_CONTEXT(3)
GLOBAL_UNCERTAINTY_ASSIGNED_CONTEXT((#180))
GLOBAL_UNIT_ASSIGNED_CONTEXT((#184,#187,#185))
REPRESENTATION_CONTEXT('','3D')
);
#183=(
GEOMETRIC_REPRESENTATION_CONTEXT(3)
GLOBAL_UNCERTAINTY_ASSIGNED_CONTEXT((#181))
GLOBAL_UNIT_ASSIGNED_CONTEXT((#184,#187,#185))
REPRESENTATION_CONTEXT('','3D')
);
#184=(
LENGTH_UNIT()
NAMED_UNIT(*)
SI_UNIT(.MILLI.,.METRE.)
);
#185=(
NAMED_UNIT(*)
SI_UNIT($,.STERADIAN.)
SOLID_ANGLE_UNIT()
);
#186=DIMENSIONAL_EXPONENTS(0.,0.,0.,0.,0.,0.,0.);
#187=(
CONVERSION_BASED_UNIT('degree',#189)
NAMED_UNIT(#186)
PLANE_ANGLE_UNIT()
);
#188=(
NAMED_UNIT(*)
PLANE_ANGLE_UNIT()
SI_UNIT($,.RADIAN.)
);
#189=PLANE_ANGLE_MEASURE_WITH_UNIT(PLANE_ANGLE_MEASURE(0.01745329252),#188);
#190=SHAPE_DEFINITION_REPRESENTATION(#191,#192);
#191=PRODUCT_DEFINITION_SHAPE('',$,#194);
#192=SHAPE_REPRESENTATION('',(#104),#182);
#193=PRODUCT_DEFINITION_CONTEXT('part definition',#198,'design');
#194=PRODUCT_DEFINITION('Musterteilrohr','Musterteilrohr',#195,#193);
#195=PRODUCT_DEFINITION_FORMATION('',$,#200);
#196=PRODUCT_RELATED_PRODUCT_CATEGORY('Musterteilrohr','Musterteilrohr',
(#200));
#197=APPLICATION_PROTOCOL_DEFINITION('international standard',
'automotive_design',2009,#198);
#198=APPLICATION_CONTEXT(
'Core Data for Automotive Mechanical Design Process');
#199=PRODUCT_CONTEXT('part definition',#198,'mechanical');
#200=PRODUCT('Musterteilrohr','Musterteilrohr',$,(#199));
#201=PRESENTATION_STYLE_ASSIGNMENT((#202));
#202=SURFACE_STYLE_USAGE(.BOTH.,#203);
#203=SURFACE_SIDE_STYLE($,(#204));
#204=SURFACE_STYLE_FILL_AREA(#205);
#205=FILL_AREA_STYLE($,(#206));
#206=FILL_AREA_STYLE_COLOUR($,#207);
#207=COLOUR_RGB('',0.749019607843137,0.749019607843137,0.749019607843137);
ENDSEC;
END-ISO-10303-21;
