ISO-10303-21;
HEADER;
/****************************************************************
 * Generated by software with PDE/Lib inside                    *
 * PDElib Version v51a, created Thu 01/14/2010                  *
 * ITI Transcendata (http://www.transcendata.com/)              *
 ****************************************************************/
FILE_DESCRIPTION((''),'2;1');
FILE_NAME('M:\\Artikel\\4010\\015\\015753\\4010015015753-\S\X150x2, 5\S\0, R=1,5d.stp','2012-02-22T15:33:36',('CNickl'),(''),'Autodesk Inventor 2011','Autodesk Inventor 2011','');
FILE_SCHEMA(('AUTOMOTIVE_DESIGN { 1 0 10303 214 1 1 1 1 }'));
ENDSEC;
DATA;
#5=APPLICATION_CONTEXT('automotive design');
#6=APPLICATION_PROTOCOL_DEFINITION('International Standard','automotive_design',2001,#5);
#7=PRODUCT_CONTEXT('',#5,'mechanical');
#8=PRODUCT('4010015015753-\S\X150x2, 5\S\0, R=1,5d','4010015015753-\S\X150x2, 5\S\0, R=1,5d',$,(#7));
#9=PRODUCT_RELATED_PRODUCT_CATEGORY('part',$,(#8));
#10=PRODUCT_DEFINITION_FORMATION('',$,#8);
#11=PRODUCT_DEFINITION_CONTEXT('part definition',#5,'design');
#12=PRODUCT_DEFINITION('',$,#10,#11);
#18=(NAMED_UNIT(*)PLANE_ANGLE_UNIT()SI_UNIT($,.RADIAN.));
#19=DIMENSIONAL_EXPONENTS(0.0,0.0,0.0,0.0,0.0,0.0,0.0);
#20=PLANE_ANGLE_MEASURE_WITH_UNIT(PLANE_ANGLE_MEASURE(0.017453292500000),#18);
#24=(CONVERSION_BASED_UNIT('DEGREE',#20)NAMED_UNIT(#19)PLANE_ANGLE_UNIT());
#28=(NAMED_UNIT(*)SI_UNIT($,.STERADIAN.)SOLID_ANGLE_UNIT());
#32=(LENGTH_UNIT()NAMED_UNIT(*)SI_UNIT(.MILLI.,.METRE.));
#34=UNCERTAINTY_MEASURE_WITH_UNIT(LENGTH_MEASURE(0.010000000000000),#32,'DISTANCE_ACCURACY_VALUE','');
#36=(GEOMETRIC_REPRESENTATION_CONTEXT(3)GLOBAL_UNCERTAINTY_ASSIGNED_CONTEXT((#34))GLOBAL_UNIT_ASSIGNED_CONTEXT((#24,#28,#32))REPRESENTATION_CONTEXT('None','None'));
#37=AXIS2_PLACEMENT_3D('',#38,#39,#40);
#38=CARTESIAN_POINT('',(0.0,0.0,0.0));
#39=DIRECTION('',(0.0,0.0,1.0));
#40=DIRECTION('',(1.0,0.0,0.0));
#41=SHAPE_REPRESENTATION('',(#37),#36);
#42=PRODUCT_DEFINITION_SHAPE('','',#12);
#43=SHAPE_DEFINITION_REPRESENTATION(#42,#41);
#49=(NAMED_UNIT(*)PLANE_ANGLE_UNIT()SI_UNIT($,.RADIAN.));
#50=DIMENSIONAL_EXPONENTS(0.0,0.0,0.0,0.0,0.0,0.0,0.0);
#51=PLANE_ANGLE_MEASURE_WITH_UNIT(PLANE_ANGLE_MEASURE(0.017453292500000),#49);
#55=(CONVERSION_BASED_UNIT('DEGREE',#51)NAMED_UNIT(#50)PLANE_ANGLE_UNIT());
#59=(NAMED_UNIT(*)SI_UNIT($,.STERADIAN.)SOLID_ANGLE_UNIT());
#63=(LENGTH_UNIT()NAMED_UNIT(*)SI_UNIT(.MILLI.,.METRE.));
#65=UNCERTAINTY_MEASURE_WITH_UNIT(LENGTH_MEASURE(0.000001000000000),#63,'DISTANCE_ACCURACY_VALUE','');
#67=(GEOMETRIC_REPRESENTATION_CONTEXT(3)GLOBAL_UNCERTAINTY_ASSIGNED_CONTEXT((#65))GLOBAL_UNIT_ASSIGNED_CONTEXT((#55,#59,#63))REPRESENTATION_CONTEXT('','3D'));
#68=CARTESIAN_POINT('',(0.0,0.0,0.0));
#69=DIRECTION('',(0.0,0.0,1.0));
#70=DIRECTION('',(-1.0,0.0,0.0));
#71=AXIS2_PLACEMENT_3D('',#68,#69,#70);
#72=CYLINDRICAL_SURFACE('',#71,76.500000000000000);
#73=CARTESIAN_POINT('',(-4.684274E-015,-76.500000000000000,1.368543E-014));
#74=VERTEX_POINT('',#73);
#75=CARTESIAN_POINT('',(0.004474272817621,-76.499999869156113,2.000000000000000));
#76=VERTEX_POINT('',#75);
#77=CARTESIAN_POINT('',(-4.684274E-015,-76.500000000000000,1.368543E-014));
#78=CARTESIAN_POINT('',(-4.684274E-015,-76.500000000000000,0.007056674157737));
#79=CARTESIAN_POINT('',(0.000000445607596,-76.500000000000000,0.009455943364328));
#80=CARTESIAN_POINT('',(0.000000445607881,-76.500000000000000,0.438629115155962));
#81=CARTESIAN_POINT('',(0.000602986095159,-76.500000095576922,1.134767407727459));
#82=CARTESIAN_POINT('',(0.004474272893565,-76.499999869156085,1.999999999999660));
#83=B_SPLINE_CURVE_WITH_KNOTS('',3,(#77,#78,#79,#80,#81,#82),.UNSPECIFIED.,.F.,.U.,(4,2,4),(-0.262420170349237,-0.259572375847747,0.0),.UNSPECIFIED.);
#84=EDGE_CURVE('',#74,#76,#83,.T.);
#85=ORIENTED_EDGE('',*,*,#84,.F.);
#86=CARTESIAN_POINT('',(-4.684274E-015,76.500000000000000,1.368543E-014));
#87=VERTEX_POINT('',#86);
#88=CARTESIAN_POINT('',(0.0,0.0,0.0));
#89=DIRECTION('',(0.0,0.0,-1.0));
#90=DIRECTION('',(-1.0,0.0,0.0));
#91=AXIS2_PLACEMENT_3D('',#88,#89,#90);
#92=CIRCLE('',#91,76.500000000000000);
#93=EDGE_CURVE('',#74,#87,#92,.T.);
#94=ORIENTED_EDGE('',*,*,#93,.T.);
#95=CARTESIAN_POINT('',(0.004474272817621,76.499999869156113,2.000000000000000));
#96=VERTEX_POINT('',#95);
#97=CARTESIAN_POINT('',(0.004474272893565,76.499999869156085,1.999999999999660));
#98=CARTESIAN_POINT('',(0.000602986095159,76.500000095576922,1.134767407727459));
#99=CARTESIAN_POINT('',(0.000000445607881,76.500000000000000,0.438629115155962));
#100=CARTESIAN_POINT('',(0.000000445607596,76.500000000000000,0.009455943364328));
#101=CARTESIAN_POINT('',(-4.684274E-015,76.500000000000000,0.007056674157737));
#102=CARTESIAN_POINT('',(-4.684274E-015,76.500000000000000,1.368543E-014));
#103=B_SPLINE_CURVE_WITH_KNOTS('',3,(#97,#98,#99,#100,#101,#102),.UNSPECIFIED.,.F.,.U.,(4,2,4),(-0.127354730054261,0.0,0.001397221483229),.UNSPECIFIED.);
#104=EDGE_CURVE('',#96,#87,#103,.T.);
#105=ORIENTED_EDGE('',*,*,#104,.F.);
#106=CARTESIAN_POINT('',(0.0,0.0,2.0));
#107=DIRECTION('',(0.0,0.0,-1.0));
#108=DIRECTION('',(-1.0,0.0,0.0));
#109=AXIS2_PLACEMENT_3D('',#106,#107,#108);
#110=CIRCLE('',#109,76.500000000000000);
#111=EDGE_CURVE('',#76,#96,#110,.T.);
#112=ORIENTED_EDGE('',*,*,#111,.F.);
#113=EDGE_LOOP('',(#85,#94,#105,#112));
#114=FACE_OUTER_BOUND('',#113,.T.);
#115=ADVANCED_FACE('',(#114),#72,.F.);
#116=CARTESIAN_POINT('',(0.0,0.0,0.0));
#117=DIRECTION('',(0.0,0.0,1.0));
#118=DIRECTION('',(-1.0,0.0,0.0));
#119=AXIS2_PLACEMENT_3D('',#116,#117,#118);
#120=CYLINDRICAL_SURFACE('',#119,82.500000000000000);
#121=CARTESIAN_POINT('',(82.500000000000000,1.010334E-014,2.0));
#122=VERTEX_POINT('',#121);
#123=CARTESIAN_POINT('',(0.0,0.0,2.0));
#124=DIRECTION('',(0.0,0.0,-1.0));
#125=DIRECTION('',(-1.0,0.0,0.0));
#126=AXIS2_PLACEMENT_3D('',#123,#124,#125);
#127=CIRCLE('',#126,82.500000000000000);
#128=EDGE_CURVE('',#122,#122,#127,.T.);
#129=ORIENTED_EDGE('',*,*,#128,.T.);
#130=EDGE_LOOP('',(#129));
#131=FACE_OUTER_BOUND('',#130,.T.);
#132=CARTESIAN_POINT('',(82.500000000000000,1.010334E-014,0.0));
#133=VERTEX_POINT('',#132);
#134=CARTESIAN_POINT('',(0.0,0.0,0.0));
#135=DIRECTION('',(0.0,0.0,-1.0));
#136=DIRECTION('',(-1.0,0.0,0.0));
#137=AXIS2_PLACEMENT_3D('',#134,#135,#136);
#138=CIRCLE('',#137,82.500000000000000);
#139=EDGE_CURVE('',#133,#133,#138,.T.);
#140=ORIENTED_EDGE('',*,*,#139,.F.);
#141=EDGE_LOOP('',(#140));
#142=FACE_BOUND('',#141,.T.);
#143=ADVANCED_FACE('',(#131,#142),#120,.T.);
#144=CARTESIAN_POINT('',(0.0,0.0,2.0));
#145=DIRECTION('',(0.0,0.0,-1.0));
#146=DIRECTION('',(-1.0,0.0,0.0));
#147=AXIS2_PLACEMENT_3D('',#144,#145,#146);
#148=PLANE('',#147);
#149=ORIENTED_EDGE('',*,*,#128,.F.);
#150=EDGE_LOOP('',(#149));
#151=FACE_OUTER_BOUND('',#150,.T.);
#152=CARTESIAN_POINT('',(0.004474272817621,-76.499999869156085,2.0));
#153=CARTESIAN_POINT('',(0.005965800490965,-76.499999956387910,2.0));
#154=CARTESIAN_POINT('',(0.007457284561028,-76.500000000000000,2.0));
#155=CARTESIAN_POINT('',(2.369374680179265,-76.500000000000000,2.0));
#156=CARTESIAN_POINT('',(4.839058705037548,-76.389009246242836,2.0));
#157=CARTESIAN_POINT('',(9.859337543889788,-75.905116703739608,2.0));
#158=CARTESIAN_POINT('',(12.409924154518123,-75.532129810653799,2.0));
#159=CARTESIAN_POINT('',(17.458605009934484,-74.527912322156112,2.0));
#160=CARTESIAN_POINT('',(19.957782491459533,-73.896466282837025,2.0));
#161=CARTESIAN_POINT('',(24.781109683463846,-72.422399842077084,2.0));
#162=CARTESIAN_POINT('',(27.105284390527981,-71.579861233785408,2.0));
#163=CARTESIAN_POINT('',(31.466793519921595,-69.773327211384938,2.0));
#164=CARTESIAN_POINT('',(33.706012195169016,-68.725712738994559,2.0));
#165=CARTESIAN_POINT('',(38.158977380294559,-66.357549982422668,2.0));
#166=CARTESIAN_POINT('',(40.372683731972998,-65.036926187706271,2.0));
#167=CARTESIAN_POINT('',(44.652777309636207,-62.177179426703582,2.0));
#168=CARTESIAN_POINT('',(46.720082845279421,-60.637442858873413,2.0));
#169=CARTESIAN_POINT('',(50.612176515730951,-57.429844402450698,2.0));
#170=CARTESIAN_POINT('',(52.437019008389605,-55.762048472136421,2.0));
#171=CARTESIAN_POINT('',(55.775169817087104,-52.424050508858770,2.0));
#172=CARTESIAN_POINT('',(57.442997824167897,-50.599346247062023,2.0));
#173=CARTESIAN_POINT('',(60.650674831597378,-46.707531555544676,2.0));
#174=CARTESIAN_POINT('',(62.190457791070756,-44.640366694669694,2.0));
#175=CARTESIAN_POINT('',(65.050301997770703,-40.360545074757908,2.0));
#176=CARTESIAN_POINT('',(66.370976825998596,-38.146969921124231,2.0));
#177=CARTESIAN_POINT('',(68.739236018338261,-33.694248189178474,2.0));
#178=CARTESIAN_POINT('',(69.786895811885913,-31.455141729762282,2.0));
#179=CARTESIAN_POINT('',(71.593461116580983,-27.093942890529476,2.0));
#180=CARTESIAN_POINT('',(72.435996603959126,-24.769987509657263,2.0));
#181=CARTESIAN_POINT('',(73.910061486132804,-19.947105143765057,2.0));
#182=CARTESIAN_POINT('',(74.541509016420790,-17.448153138071838,2.0));
#183=CARTESIAN_POINT('',(75.545730175418782,-12.399919202467284,2.0));
#184=CARTESIAN_POINT('',(75.918719252481807,-9.849553907236675,2.0));
#185=CARTESIAN_POINT('',(76.402614642867704,-4.829704497492933,2.0));
#186=CARTESIAN_POINT('',(76.513606071854397,-2.360228588187174,2.0));
#187=CARTESIAN_POINT('',(76.513606071854397,2.360228588187155,2.0));
#188=CARTESIAN_POINT('',(76.402614642867718,4.829704497492914,2.0));
#189=CARTESIAN_POINT('',(75.918719252481822,9.849553907236654,2.0));
#190=CARTESIAN_POINT('',(75.545730175418768,12.399919202467263,2.0));
#191=CARTESIAN_POINT('',(74.541509016420790,17.448153138071817,2.0));
#192=CARTESIAN_POINT('',(73.910061486132804,19.947105143765040,2.0));
#193=CARTESIAN_POINT('',(72.435996603959126,24.769987509657238,2.0));
#194=CARTESIAN_POINT('',(71.593461116580983,27.093942890529451,2.0));
#195=CARTESIAN_POINT('',(69.786895811885927,31.455141729762268,2.0));
#196=CARTESIAN_POINT('',(68.739236018338275,33.694248189178460,2.0));
#197=CARTESIAN_POINT('',(66.370976825998596,38.146969921124203,2.0));
#198=CARTESIAN_POINT('',(65.050301997770731,40.360545074757859,2.000000000000000));
#199=CARTESIAN_POINT('',(62.190457791070799,44.640366694669609,2.000000000000000));
#200=CARTESIAN_POINT('',(60.650674831597449,46.707531555544584,2.0));
#201=CARTESIAN_POINT('',(57.442997824167975,50.599346247061945,2.0));
#202=CARTESIAN_POINT('',(55.775169817087203,52.424050508858727,2.0));
#203=CARTESIAN_POINT('',(52.437019008389711,55.762048472136385,2.0));
#204=CARTESIAN_POINT('',(50.612176515731029,57.429844402450627,2.0));
#205=CARTESIAN_POINT('',(46.720082845279492,60.637442858873349,2.0));
#206=CARTESIAN_POINT('',(44.652777309636278,62.177179426703539,2.0));
#207=CARTESIAN_POINT('',(40.372683731973069,65.036926187706257,2.0));
#208=CARTESIAN_POINT('',(38.158977380294616,66.357549982422611,2.0));
#209=CARTESIAN_POINT('',(33.706012195169073,68.725712738994517,2.0));
#210=CARTESIAN_POINT('',(31.466793519921652,69.773327211384938,2.0));
#211=CARTESIAN_POINT('',(27.105284390528009,71.579861233785380,2.0));
#212=CARTESIAN_POINT('',(24.781109683463857,72.422399842077084,2.0));
#213=CARTESIAN_POINT('',(19.957782491459529,73.896466282837025,2.0));
#214=CARTESIAN_POINT('',(17.458605009934484,74.527912322156112,2.0));
#215=CARTESIAN_POINT('',(12.409924154518119,75.532129810653799,2.0));
#216=CARTESIAN_POINT('',(9.859337543889790,75.905116703739608,2.0));
#217=CARTESIAN_POINT('',(4.839058705037550,76.389009246242836,2.0));
#218=CARTESIAN_POINT('',(2.369374680179264,76.500000000000000,2.0));
#219=CARTESIAN_POINT('',(0.007457284561039,76.500000000000000,2.0));
#220=CARTESIAN_POINT('',(0.005965800490954,76.499999956387910,2.0));
#221=CARTESIAN_POINT('',(0.004474272817621,76.499999869156085,2.0));
#222=B_SPLINE_CURVE_WITH_KNOTS('',3,(#152,#153,#154,#155,#156,#157,#158,#159,#160,#161,#162,#163,#164,#165,#166,#167,#168,#169,#170,#171,#172,#173,#174,#175,#176,#177,#178,#179,#180,#181,#182,#183,#184,#185,#186,#187,#188,#189,#190,#191,#192,#193,#194,#195,#196,#197,#198,#199,#200,#201,#202,#203,#204,#205,#206,#207,#208,#209,#210,#211,#212,#213,#214,#215,#216,#217,#218,#219,#220,#221),.UNSPECIFIED.,.F.,.U.,(4,2,2,2,2,2,2,2,2,2,2,2,2,2,2,2,2,2,2,2,2,2,2,2,2,2,2,2,2,2,2,2,2,2,4),(11.329092513026556,11.329539945161386,12.037667731712027,12.745795518262666,13.453923304813305,14.162051091363946,14.870175201683590,15.578299312003233,16.286423422322876,16.994547532642521,17.702648443356193,18.410749354069864,19.118850264783539,19.826951175497211,20.535019751953357,21.243088328409506,21.951156904865655,22.659225481321805,23.367294057777954,24.075362634234104,24.783431210690253,25.491499787146399,26.199600697860070,26.907701608573738,27.615802519287410,28.323903430001081,29.032027540320726,29.740151650640371,30.448275760960016,31.156399871279664,31.864527657830308,32.572655444380949,33.280783230931590,33.988911017482231,33.989358449617058),.UNSPECIFIED.);
#223=EDGE_CURVE('',#76,#96,#222,.T.);
#224=ORIENTED_EDGE('',*,*,#223,.F.);
#225=ORIENTED_EDGE('',*,*,#111,.T.);
#226=EDGE_LOOP('',(#224,#225));
#227=FACE_BOUND('',#226,.T.);
#228=ADVANCED_FACE('',(#151,#227),#148,.F.);
#229=CARTESIAN_POINT('',(223.500000000000000,0.0,0.0));
#230=DIRECTION('',(0.0,1.0,0.0));
#231=DIRECTION('',(0.0,0.0,1.0));
#232=AXIS2_PLACEMENT_3D('',#229,#230,#231);
#233=TOROIDAL_SURFACE('',#232,223.500000000000000,76.500000000000000);
#234=CARTESIAN_POINT('',(0.850484976494912,76.500000000000000,19.479308504101986));
#235=VERTEX_POINT('',#234);
#236=CARTESIAN_POINT('',(0.680630738182569,76.499999869156113,17.486529149319058));
#237=VERTEX_POINT('',#236);
#238=CARTESIAN_POINT('',(0.850484976494912,76.500000000000000,19.479308504101986));
#239=CARTESIAN_POINT('',(0.846263552838377,76.500000000000000,19.431057410915674));
#240=CARTESIAN_POINT('',(0.842009238273032,76.500000000001222,19.382338292893841));
#241=CARTESIAN_POINT('',(0.784146504479316,76.499999999933706,18.718473965549713));
#242=CARTESIAN_POINT('',(0.731755251362172,76.500000030932469,18.102621436462030));
#243=CARTESIAN_POINT('',(0.680630738106908,76.499999869156099,17.486529149325339));
#244=B_SPLINE_CURVE_WITH_KNOTS('',3,(#238,#239,#240,#241,#242,#243),.UNSPECIFIED.,.F.,.U.,(4,2,4),(-1.144097713560834,-1.129526214771309,-0.943620947582753),.UNSPECIFIED.);
#245=EDGE_CURVE('',#235,#237,#244,.T.);
#246=ORIENTED_EDGE('',*,*,#245,.T.);
#247=CARTESIAN_POINT('',(0.680630738182569,-76.499999869156113,17.486529149319058));
#248=VERTEX_POINT('',#247);
#249=CARTESIAN_POINT('',(0.680630738182569,76.499999869156113,17.486529149319058));
#250=CARTESIAN_POINT('',(0.682116590034695,76.499999956387924,17.486399154126321));
#251=CARTESIAN_POINT('',(0.683602398449483,76.500000000000000,17.486269162733855));
#252=CARTESIAN_POINT('',(3.036531985186930,76.500000000000000,17.280414497819589));
#253=CARTESIAN_POINT('',(5.496818116712622,76.389009246242836,17.065167352281041));
#254=CARTESIAN_POINT('',(10.497993278919422,75.905116703739623,16.627621221280521));
#255=CARTESIAN_POINT('',(13.038874137451192,75.532129810653828,16.405322950788978));
#256=CARTESIAN_POINT('',(18.068343237974279,74.527912322156112,15.965301420939277));
#257=CARTESIAN_POINT('',(20.558010594659820,73.896466282837025,15.747483751278741));
#258=CARTESIAN_POINT('',(25.362983570496258,72.422399842077084,15.327103087344632));
#259=CARTESIAN_POINT('',(27.678314091112476,71.579861233785380,15.124537914475134));
#260=CARTESIAN_POINT('',(32.023226361493144,69.773327211384938,14.744407346802145));
#261=CARTESIAN_POINT('',(34.253924133642656,68.725712738994559,14.549246579986528));
#262=CARTESIAN_POINT('',(38.689944441851850,66.357549982422682,14.161145091847446));
#263=CARTESIAN_POINT('',(40.895226972525933,65.036926187706300,13.968207870541708));
#264=CARTESIAN_POINT('',(45.159033501930558,62.177179426703603,13.595173135750986));
#265=CARTESIAN_POINT('',(47.218472315874031,60.637442858873413,13.414995586305656));
#266=CARTESIAN_POINT('',(51.095755394854280,57.429844402450698,13.075777271613994));
#267=CARTESIAN_POINT('',(52.913653810893351,55.762048472136421,12.916731768768841));
#268=CARTESIAN_POINT('',(56.239101947948463,52.424050508858770,12.625792755633114));
#269=CARTESIAN_POINT('',(57.900583365931297,50.599346247062023,12.480431966900641));
#270=CARTESIAN_POINT('',(61.096054193923337,46.707531555544683,12.200864494823540));
#271=CARTESIAN_POINT('',(62.629977814362725,44.640366694669723,12.066663567320450));
#272=CARTESIAN_POINT('',(65.478939450445608,40.360545074757965,11.817411721342928));
#273=CARTESIAN_POINT('',(66.794588712229455,38.146969921124310,11.702307325760593));
#274=CARTESIAN_POINT('',(69.153835963345301,33.694248189178552,11.495899936833258));
#275=CARTESIAN_POINT('',(70.197509095081301,31.455141729762317,11.404590369379759));
#276=CARTESIAN_POINT('',(71.997199873375038,27.093942890529490,11.247137828426910));
#277=CARTESIAN_POINT('',(72.836529258855279,24.769987509657241,11.173706022233205));
#278=CARTESIAN_POINT('',(74.304984879119928,19.947105143765015,11.045232802569121));
#279=CARTESIAN_POINT('',(74.934029560916031,17.448153138071824,10.990198524060691));
#280=CARTESIAN_POINT('',(75.934429355221368,12.399919202467270,10.902674883065306));
#281=CARTESIAN_POINT('',(76.305999096237613,9.849553907236654,10.870166743017124));
#282=CARTESIAN_POINT('',(76.788053118571071,4.829704497492913,10.827992480855873));
#283=CARTESIAN_POINT('',(76.898622191661246,2.360228588187154,10.818318940423911));
#284=CARTESIAN_POINT('',(76.898622191661246,-2.360228588187174,10.818318940423911));
#285=CARTESIAN_POINT('',(76.788053118571071,-4.829704497492934,10.827992480855873));
#286=CARTESIAN_POINT('',(76.305999096237613,-9.849553907236675,10.870166743017124));
#287=CARTESIAN_POINT('',(75.934429355221354,-12.399919202467288,10.902674883065311));
#288=CARTESIAN_POINT('',(74.934029560916002,-17.448153138071842,10.990198524060695));
#289=CARTESIAN_POINT('',(74.304984879119928,-19.947105143765043,11.045232802569123));
#290=CARTESIAN_POINT('',(72.836529258855279,-24.769987509657252,11.173706022233208));
#291=CARTESIAN_POINT('',(71.997199873375024,-27.093942890529469,11.247137828426910));
#292=CARTESIAN_POINT('',(70.197509095081301,-31.455141729762282,11.404590369379761));
#293=CARTESIAN_POINT('',(69.153835963345301,-33.694248189178502,11.495899936833258));
#294=CARTESIAN_POINT('',(66.794588712229469,-38.146969921124267,11.702307325760593));
#295=CARTESIAN_POINT('',(65.478939450445623,-40.360545074757958,11.817411721342932));
#296=CARTESIAN_POINT('',(62.629977814362732,-44.640366694669716,12.066663567320450));
#297=CARTESIAN_POINT('',(61.096054193923337,-46.707531555544683,12.200864494823541));
#298=CARTESIAN_POINT('',(57.900583365931297,-50.599346247062030,12.480431966900642));
#299=CARTESIAN_POINT('',(56.239101947948463,-52.424050508858770,12.625792755633114));
#300=CARTESIAN_POINT('',(52.913653810893344,-55.762048472136421,12.916731768768841));
#301=CARTESIAN_POINT('',(51.095755394854258,-57.429844402450712,13.075777271613997));
#302=CARTESIAN_POINT('',(47.218472315873996,-60.637442858873428,13.414995586305661));
#303=CARTESIAN_POINT('',(45.159033501930502,-62.177179426703582,13.595173135750990));
#304=CARTESIAN_POINT('',(40.895226972525876,-65.036926187706285,13.968207870541708));
#305=CARTESIAN_POINT('',(38.689944441851814,-66.357549982422668,14.161145091847446));
#306=CARTESIAN_POINT('',(34.253924133642620,-68.725712738994559,14.549246579986528));
#307=CARTESIAN_POINT('',(32.023226361493109,-69.773327211384938,14.744407346802141));
#308=CARTESIAN_POINT('',(27.678314091112455,-71.579861233785380,15.124537914475134));
#309=CARTESIAN_POINT('',(25.362983570496240,-72.422399842077084,15.327103087344629));
#310=CARTESIAN_POINT('',(20.558010594659812,-73.896466282837025,15.747483751278740));
#311=CARTESIAN_POINT('',(18.068343237974283,-74.527912322156112,15.965301420939280));
#312=CARTESIAN_POINT('',(13.038874137451199,-75.532129810653828,16.405322950788978));
#313=CARTESIAN_POINT('',(10.497993278919441,-75.905116703739623,16.627621221280521));
#314=CARTESIAN_POINT('',(5.496818116712639,-76.389009246242836,17.065167352281041));
#315=CARTESIAN_POINT('',(3.036531985186933,-76.500000000000000,17.280414497819589));
#316=CARTESIAN_POINT('',(0.683602398449479,-76.500000000000000,17.486269162733855));
#317=CARTESIAN_POINT('',(0.682116590034701,-76.499999956387924,17.486399154126318));
#318=CARTESIAN_POINT('',(0.680630738182569,-76.499999869156113,17.486529149319058));
#319=B_SPLINE_CURVE_WITH_KNOTS('',3,(#249,#250,#251,#252,#253,#254,#255,#256,#257,#258,#259,#260,#261,#262,#263,#264,#265,#266,#267,#268,#269,#270,#271,#272,#273,#274,#275,#276,#277,#278,#279,#280,#281,#282,#283,#284,#285,#286,#287,#288,#289,#290,#291,#292,#293,#294,#295,#296,#297,#298,#299,#300,#301,#302,#303,#304,#305,#306,#307,#308,#309,#310,#311,#312,#313,#314,#315,#316,#317,#318),.UNSPECIFIED.,.F.,.U.,(4,2,2,2,2,2,2,2,2,2,2,2,2,2,2,2,2,2,2,2,2,2,2,2,2,2,2,2,2,2,2,2,2,2,4),(11.329092513059106,11.329539945161381,12.037667731712022,12.745795518262662,13.453923304813303,14.162051091363944,14.870175201683587,15.578299312003232,16.286423422322876,16.994547532642517,17.702648443356189,18.410749354069861,19.118850264783532,19.826951175497204,20.535019751953357,21.243088328409506,21.951156904865655,22.659225481321805,23.367294057777954,24.075362634234104,24.783431210690253,25.491499787146399,26.199600697860070,26.907701608573745,27.615802519287417,28.323903430001089,29.032027540320733,29.740151650640378,30.448275760960023,31.156399871279667,31.864527657830305,32.572655444380942,33.280783230931583,33.988911017482224,33.989358449584500),.UNSPECIFIED.);
#320=EDGE_CURVE('',#237,#248,#319,.T.);
#321=ORIENTED_EDGE('',*,*,#320,.T.);
#322=CARTESIAN_POINT('',(0.850484976494912,-76.500000000000000,19.479308504101986));
#323=VERTEX_POINT('',#322);
#324=CARTESIAN_POINT('',(0.680630738106908,-76.499999869156099,17.486529149325339));
#325=CARTESIAN_POINT('',(0.731755250997189,-76.500000030932469,18.102621432063692));
#326=CARTESIAN_POINT('',(0.784146504095558,-76.499999999933706,18.718473961152689));
#327=CARTESIAN_POINT('',(0.842009238508514,-76.500000000001222,19.382338295594248));
#328=CARTESIAN_POINT('',(0.846263552602128,-76.500000000000000,19.431057408215338));
#329=CARTESIAN_POINT('',(0.850484976494912,-76.500000000000000,19.479308504101986));
#330=B_SPLINE_CURVE_WITH_KNOTS('',3,(#324,#325,#326,#327,#328,#329),.UNSPECIFIED.,.F.,.U.,(4,2,4),(-0.185383748378613,0.0,0.014530622170268),.UNSPECIFIED.);
#331=EDGE_CURVE('',#248,#323,#330,.T.);
#332=ORIENTED_EDGE('',*,*,#331,.T.);
#333=CARTESIAN_POINT('',(0.850484976494871,0.0,19.479308504101599));
#334=DIRECTION('',(-0.087155742747658,0.0,-0.996194698091746));
#335=DIRECTION('',(-0.996194698091746,0.0,0.087155742747658));
#336=AXIS2_PLACEMENT_3D('',#333,#334,#335);
#337=CIRCLE('',#336,76.500000000000000);
#338=EDGE_CURVE('',#323,#235,#337,.T.);
#339=ORIENTED_EDGE('',*,*,#338,.T.);
#340=EDGE_LOOP('',(#246,#321,#332,#339));
#341=FACE_OUTER_BOUND('',#340,.T.);
#342=ORIENTED_EDGE('',*,*,#84,.T.);
#343=ORIENTED_EDGE('',*,*,#223,.T.);
#344=ORIENTED_EDGE('',*,*,#104,.T.);
#345=ORIENTED_EDGE('',*,*,#93,.F.);
#346=EDGE_LOOP('',(#342,#343,#344,#345));
#347=FACE_BOUND('',#346,.T.);
#348=ADVANCED_FACE('',(#341,#347),#233,.T.);
#349=CARTESIAN_POINT('',(0.850484976494871,0.0,19.479308504101599));
#350=DIRECTION('',(-0.087155742747660,0.0,-0.996194698091745));
#351=DIRECTION('',(-0.996194698091745,0.0,0.087155742747660));
#352=AXIS2_PLACEMENT_3D('',#349,#350,#351);
#353=CYLINDRICAL_SURFACE('',#352,76.500000000000014);
#354=ORIENTED_EDGE('',*,*,#245,.F.);
#355=ORIENTED_EDGE('',*,*,#338,.F.);
#356=ORIENTED_EDGE('',*,*,#331,.F.);
#357=CARTESIAN_POINT('',(0.676173490999551,0.0,17.486919107918105));
#358=DIRECTION('',(0.087155742747660,0.0,0.996194698091745));
#359=DIRECTION('',(-0.996194698091745,0.0,0.087155742747660));
#360=AXIS2_PLACEMENT_3D('',#357,#358,#359);
#361=CIRCLE('',#360,76.500000000000014);
#362=EDGE_CURVE('',#237,#248,#361,.T.);
#363=ORIENTED_EDGE('',*,*,#362,.F.);
#364=EDGE_LOOP('',(#354,#355,#356,#363));
#365=FACE_OUTER_BOUND('',#364,.T.);
#366=ADVANCED_FACE('',(#365),#353,.F.);
#367=CARTESIAN_POINT('',(0.850484976494871,0.0,19.479308504101599));
#368=DIRECTION('',(-0.087155742747660,0.0,-0.996194698091745));
#369=DIRECTION('',(-0.996194698091745,0.0,0.087155742747660));
#370=AXIS2_PLACEMENT_3D('',#367,#368,#369);
#371=CYLINDRICAL_SURFACE('',#370,82.500000000000028);
#372=CARTESIAN_POINT('',(82.862236083568575,1.010334E-014,10.296570331236305));
#373=VERTEX_POINT('',#372);
#374=CARTESIAN_POINT('',(0.676173490999551,0.0,17.486919107918105));
#375=DIRECTION('',(0.087155742747658,0.0,0.996194698091745));
#376=DIRECTION('',(-0.996194698091745,0.0,0.087155742747658));
#377=AXIS2_PLACEMENT_3D('',#374,#375,#376);
#378=CIRCLE('',#377,82.500000000000014);
#379=EDGE_CURVE('',#373,#373,#378,.T.);
#380=ORIENTED_EDGE('',*,*,#379,.T.);
#381=EDGE_LOOP('',(#380));
#382=FACE_OUTER_BOUND('',#381,.T.);
#383=CARTESIAN_POINT('',(83.036547569063899,1.010334E-014,12.288959727419799));
#384=VERTEX_POINT('',#383);
#385=CARTESIAN_POINT('',(0.850484976494871,0.0,19.479308504101599));
#386=DIRECTION('',(-0.087155742747658,0.0,-0.996194698091745));
#387=DIRECTION('',(-0.996194698091745,0.0,0.087155742747658));
#388=AXIS2_PLACEMENT_3D('',#385,#386,#387);
#389=CIRCLE('',#388,82.500000000000014);
#390=EDGE_CURVE('',#384,#384,#389,.T.);
#391=ORIENTED_EDGE('',*,*,#390,.T.);
#392=EDGE_LOOP('',(#391));
#393=FACE_BOUND('',#392,.T.);
#394=ADVANCED_FACE('',(#382,#393),#371,.T.);
#395=CARTESIAN_POINT('',(0.676173490999551,0.0,17.486919107918105));
#396=DIRECTION('',(-0.087155742747658,0.0,-0.996194698091746));
#397=DIRECTION('',(-0.996194698091746,0.0,0.087155742747658));
#398=AXIS2_PLACEMENT_3D('',#395,#396,#397);
#399=PLANE('',#398);
#400=ORIENTED_EDGE('',*,*,#379,.F.);
#401=EDGE_LOOP('',(#400));
#402=FACE_OUTER_BOUND('',#401,.T.);
#403=ORIENTED_EDGE('',*,*,#320,.F.);
#404=ORIENTED_EDGE('',*,*,#362,.T.);
#405=EDGE_LOOP('',(#403,#404));
#406=FACE_BOUND('',#405,.T.);
#407=ADVANCED_FACE('',(#402,#406),#399,.T.);
#408=CARTESIAN_POINT('',(223.500000000000000,0.0,0.0));
#409=DIRECTION('',(0.0,1.0,0.0));
#410=DIRECTION('',(0.0,0.0,1.0));
#411=AXIS2_PLACEMENT_3D('',#408,#409,#410);
#412=TOROIDAL_SURFACE('',#411,223.500000000000000,74.500000000000000);
#413=CARTESIAN_POINT('',(75.066989984329922,9.123619E-015,12.986205669401068));
#414=VERTEX_POINT('',#413);
#415=CARTESIAN_POINT('',(0.850484976494883,0.0,19.479308504101599));
#416=DIRECTION('',(-0.087155742747658,0.0,-0.996194698091746));
#417=DIRECTION('',(-0.996194698091746,0.0,0.087155742747658));
#418=AXIS2_PLACEMENT_3D('',#415,#416,#417);
#419=CIRCLE('',#418,74.500000000000000);
#420=EDGE_CURVE('',#414,#414,#419,.T.);
#421=ORIENTED_EDGE('',*,*,#420,.F.);
#422=EDGE_LOOP('',(#421));
#423=FACE_OUTER_BOUND('',#422,.T.);
#424=CARTESIAN_POINT('',(74.500000000000000,9.123619E-015,0.0));
#425=VERTEX_POINT('',#424);
#426=CARTESIAN_POINT('',(0.0,0.0,0.0));
#427=DIRECTION('',(0.0,0.0,1.0));
#428=DIRECTION('',(-1.0,0.0,0.0));
#429=AXIS2_PLACEMENT_3D('',#426,#427,#428);
#430=CIRCLE('',#429,74.500000000000000);
#431=EDGE_CURVE('',#425,#425,#430,.T.);
#432=ORIENTED_EDGE('',*,*,#431,.F.);
#433=EDGE_LOOP('',(#432));
#434=FACE_BOUND('',#433,.T.);
#435=ADVANCED_FACE('',(#423,#434),#412,.F.);
#436=CARTESIAN_POINT('',(0.850484976494871,0.0,19.479308504101599));
#437=DIRECTION('',(-0.087155742747658,0.0,-0.996194698091746));
#438=DIRECTION('',(-0.996194698091746,0.0,0.087155742747658));
#439=AXIS2_PLACEMENT_3D('',#436,#437,#438);
#440=PLANE('',#439);
#441=ORIENTED_EDGE('',*,*,#390,.F.);
#442=EDGE_LOOP('',(#441));
#443=FACE_OUTER_BOUND('',#442,.T.);
#444=ORIENTED_EDGE('',*,*,#420,.T.);
#445=EDGE_LOOP('',(#444));
#446=FACE_BOUND('',#445,.T.);
#447=CARTESIAN_POINT('',(0.850484976494871,0.0,19.479308504101599));
#448=DIRECTION('',(-0.087155742747658,0.0,-0.996194698091746));
#449=DIRECTION('',(-0.996194698091746,0.0,0.087155742747658));
#450=AXIS2_PLACEMENT_3D('',#447,#448,#449);
#451=CIRCLE('',#450,76.500000000000000);
#452=EDGE_CURVE('',#323,#235,#451,.T.);
#453=ORIENTED_EDGE('',*,*,#452,.F.);
#454=ORIENTED_EDGE('',*,*,#452,.T.);
#455=EDGE_LOOP('',(#453,#454));
#456=FACE_BOUND('',#455,.T.);
#457=ADVANCED_FACE('',(#443,#446,#456),#440,.F.);
#458=CARTESIAN_POINT('',(0.0,0.0,0.0));
#459=DIRECTION('',(0.0,0.0,-1.0));
#460=DIRECTION('',(-1.0,0.0,0.0));
#461=AXIS2_PLACEMENT_3D('',#458,#459,#460);
#462=PLANE('',#461);
#463=ORIENTED_EDGE('',*,*,#139,.T.);
#464=EDGE_LOOP('',(#463));
#465=FACE_OUTER_BOUND('',#464,.T.);
#466=ORIENTED_EDGE('',*,*,#431,.T.);
#467=EDGE_LOOP('',(#466));
#468=FACE_BOUND('',#467,.T.);
#469=CARTESIAN_POINT('',(0.0,0.0,0.0));
#470=DIRECTION('',(0.0,0.0,-1.0));
#471=DIRECTION('',(-1.0,0.0,0.0));
#472=AXIS2_PLACEMENT_3D('',#469,#470,#471);
#473=CIRCLE('',#472,76.500000000000000);
#474=EDGE_CURVE('',#74,#87,#473,.T.);
#475=ORIENTED_EDGE('',*,*,#474,.T.);
#476=ORIENTED_EDGE('',*,*,#474,.F.);
#477=EDGE_LOOP('',(#475,#476));
#478=FACE_BOUND('',#477,.T.);
#479=ADVANCED_FACE('',(#465,#468,#478),#462,.T.);
#480=CLOSED_SHELL('',(#115,#143,#228,#348,#366,#394,#407,#435,#457,#479));
#481=MANIFOLD_SOLID_BREP('Volumenk\S\vrper1',#480);
#482=COLOUR_RGB('Standard',0.752941012382507,0.752941012382507,0.752941012382507);
#483=FILL_AREA_STYLE_COLOUR('Standard',#482);
#484=FILL_AREA_STYLE('Standard',(#483));
#485=SURFACE_STYLE_FILL_AREA(#484);
#486=SURFACE_SIDE_STYLE('Standard',(#485));
#487=SURFACE_STYLE_USAGE(.BOTH.,#486);
#488=PRESENTATION_STYLE_ASSIGNMENT((#487));
#489=STYLED_ITEM('',(#488),#481);
#490=MECHANICAL_DESIGN_GEOMETRIC_PRESENTATION_REPRESENTATION('',(#489),#36);
#491=ADVANCED_BREP_SHAPE_REPRESENTATION('ABSR',(#481),#36);
#492=SHAPE_REPRESENTATION_RELATIONSHIP('SRR','None',#491,#41);
ENDSEC;
END-ISO-10303-21;
