ISO-10303-21;
HEADER;
/****************************************************************
 * Generated by software with PDE/Lib inside                    *
 * PDElib Version v51a, created Thu 01/14/2010                  *
 * ITI Transcendata (http://www.transcendata.com/)              *
 ****************************************************************/
FILE_DESCRIPTION((''),'2;1');
FILE_NAME('M:\\Artikel\\4010\\015\\015753\\4010015015755-\S\X150x2, 15\S\0, R=1,5d.stp','2012-02-22T15:35:44',('CNickl'),(''),'Autodesk Inventor 2011','Autodesk Inventor 2011','');
FILE_SCHEMA(('AUTOMOTIVE_DESIGN { 1 0 10303 214 1 1 1 1 }'));
ENDSEC;
DATA;
#5=APPLICATION_CONTEXT('automotive design');
#6=APPLICATION_PROTOCOL_DEFINITION('International Standard','automotive_design',2001,#5);
#7=PRODUCT_CONTEXT('',#5,'mechanical');
#8=PRODUCT('4010015015753-\S\X150x2, 5\S\0, R=1,5d','4010015015753-\S\X150x2, 5\S\0, R=1,5d',$,(#7));
#9=PRODUCT_RELATED_PRODUCT_CATEGORY('part',$,(#8));
#10=PRODUCT_DEFINITION_FORMATION('',$,#8);
#11=PRODUCT_DEFINITION_CONTEXT('part definition',#5,'design');
#12=PRODUCT_DEFINITION('',$,#10,#11);
#18=(NAMED_UNIT(*)PLANE_ANGLE_UNIT()SI_UNIT($,.RADIAN.));
#19=DIMENSIONAL_EXPONENTS(0.0,0.0,0.0,0.0,0.0,0.0,0.0);
#20=PLANE_ANGLE_MEASURE_WITH_UNIT(PLANE_ANGLE_MEASURE(0.017453292500000),#18);
#24=(CONVERSION_BASED_UNIT('DEGREE',#20)NAMED_UNIT(#19)PLANE_ANGLE_UNIT());
#28=(NAMED_UNIT(*)SI_UNIT($,.STERADIAN.)SOLID_ANGLE_UNIT());
#32=(LENGTH_UNIT()NAMED_UNIT(*)SI_UNIT(.MILLI.,.METRE.));
#34=UNCERTAINTY_MEASURE_WITH_UNIT(LENGTH_MEASURE(0.010000000000000),#32,'DISTANCE_ACCURACY_VALUE','');
#36=(GEOMETRIC_REPRESENTATION_CONTEXT(3)GLOBAL_UNCERTAINTY_ASSIGNED_CONTEXT((#34))GLOBAL_UNIT_ASSIGNED_CONTEXT((#24,#28,#32))REPRESENTATION_CONTEXT('None','None'));
#37=AXIS2_PLACEMENT_3D('',#38,#39,#40);
#38=CARTESIAN_POINT('',(0.0,0.0,0.0));
#39=DIRECTION('',(0.0,0.0,1.0));
#40=DIRECTION('',(1.0,0.0,0.0));
#41=SHAPE_REPRESENTATION('',(#37),#36);
#42=PRODUCT_DEFINITION_SHAPE('','',#12);
#43=SHAPE_DEFINITION_REPRESENTATION(#42,#41);
#49=(NAMED_UNIT(*)PLANE_ANGLE_UNIT()SI_UNIT($,.RADIAN.));
#50=DIMENSIONAL_EXPONENTS(0.0,0.0,0.0,0.0,0.0,0.0,0.0);
#51=PLANE_ANGLE_MEASURE_WITH_UNIT(PLANE_ANGLE_MEASURE(0.017453292500000),#49);
#55=(CONVERSION_BASED_UNIT('DEGREE',#51)NAMED_UNIT(#50)PLANE_ANGLE_UNIT());
#59=(NAMED_UNIT(*)SI_UNIT($,.STERADIAN.)SOLID_ANGLE_UNIT());
#63=(LENGTH_UNIT()NAMED_UNIT(*)SI_UNIT(.MILLI.,.METRE.));
#65=UNCERTAINTY_MEASURE_WITH_UNIT(LENGTH_MEASURE(0.000001000000000),#63,'DISTANCE_ACCURACY_VALUE','');
#67=(GEOMETRIC_REPRESENTATION_CONTEXT(3)GLOBAL_UNCERTAINTY_ASSIGNED_CONTEXT((#65))GLOBAL_UNIT_ASSIGNED_CONTEXT((#55,#59,#63))REPRESENTATION_CONTEXT('','3D'));
#68=CARTESIAN_POINT('',(0.0,0.0,0.0));
#69=DIRECTION('',(0.0,0.0,1.0));
#70=DIRECTION('',(-1.0,0.0,0.0));
#71=AXIS2_PLACEMENT_3D('',#68,#69,#70);
#72=CYLINDRICAL_SURFACE('',#71,76.500000000000000);
#73=CARTESIAN_POINT('',(-4.684274E-015,-76.500000000000000,1.368543E-014));
#74=VERTEX_POINT('',#73);
#75=CARTESIAN_POINT('',(0.004474272817621,-76.499999869156113,2.000000000000000));
#76=VERTEX_POINT('',#75);
#77=CARTESIAN_POINT('',(-4.684274E-015,-76.500000000000000,1.368543E-014));
#78=CARTESIAN_POINT('',(-4.684274E-015,-76.500000000000000,0.007056674157737));
#79=CARTESIAN_POINT('',(0.000000445607596,-76.500000000000000,0.009455943364328));
#80=CARTESIAN_POINT('',(0.000000445607881,-76.500000000000000,0.438629115155962));
#81=CARTESIAN_POINT('',(0.000602986095159,-76.500000095576922,1.134767407727459));
#82=CARTESIAN_POINT('',(0.004474272893565,-76.499999869156085,1.999999999999660));
#83=B_SPLINE_CURVE_WITH_KNOTS('',3,(#77,#78,#79,#80,#81,#82),.UNSPECIFIED.,.F.,.U.,(4,2,4),(-0.262420170349237,-0.259572375847747,0.0),.UNSPECIFIED.);
#84=EDGE_CURVE('',#74,#76,#83,.T.);
#85=ORIENTED_EDGE('',*,*,#84,.F.);
#86=CARTESIAN_POINT('',(-4.684274E-015,76.500000000000000,1.368543E-014));
#87=VERTEX_POINT('',#86);
#88=CARTESIAN_POINT('',(0.0,0.0,0.0));
#89=DIRECTION('',(0.0,0.0,-1.0));
#90=DIRECTION('',(-1.0,0.0,0.0));
#91=AXIS2_PLACEMENT_3D('',#88,#89,#90);
#92=CIRCLE('',#91,76.500000000000000);
#93=EDGE_CURVE('',#74,#87,#92,.T.);
#94=ORIENTED_EDGE('',*,*,#93,.T.);
#95=CARTESIAN_POINT('',(0.004474272817621,76.499999869156113,2.000000000000000));
#96=VERTEX_POINT('',#95);
#97=CARTESIAN_POINT('',(0.004474272893565,76.499999869156085,1.999999999999660));
#98=CARTESIAN_POINT('',(0.000602986095159,76.500000095576922,1.134767407727459));
#99=CARTESIAN_POINT('',(0.000000445607881,76.500000000000000,0.438629115155962));
#100=CARTESIAN_POINT('',(0.000000445607596,76.500000000000000,0.009455943364328));
#101=CARTESIAN_POINT('',(-4.684274E-015,76.500000000000000,0.007056674157737));
#102=CARTESIAN_POINT('',(-4.684274E-015,76.500000000000000,1.368543E-014));
#103=B_SPLINE_CURVE_WITH_KNOTS('',3,(#97,#98,#99,#100,#101,#102),.UNSPECIFIED.,.F.,.U.,(4,2,4),(-0.127354730054261,0.0,0.001397221483229),.UNSPECIFIED.);
#104=EDGE_CURVE('',#96,#87,#103,.T.);
#105=ORIENTED_EDGE('',*,*,#104,.F.);
#106=CARTESIAN_POINT('',(0.0,0.0,2.0));
#107=DIRECTION('',(0.0,0.0,-1.0));
#108=DIRECTION('',(-1.0,0.0,0.0));
#109=AXIS2_PLACEMENT_3D('',#106,#107,#108);
#110=CIRCLE('',#109,76.500000000000000);
#111=EDGE_CURVE('',#76,#96,#110,.T.);
#112=ORIENTED_EDGE('',*,*,#111,.F.);
#113=EDGE_LOOP('',(#85,#94,#105,#112));
#114=FACE_OUTER_BOUND('',#113,.T.);
#115=ADVANCED_FACE('',(#114),#72,.F.);
#116=CARTESIAN_POINT('',(0.0,0.0,0.0));
#117=DIRECTION('',(0.0,0.0,1.0));
#118=DIRECTION('',(-1.0,0.0,0.0));
#119=AXIS2_PLACEMENT_3D('',#116,#117,#118);
#120=CYLINDRICAL_SURFACE('',#119,82.500000000000000);
#121=CARTESIAN_POINT('',(82.500000000000000,1.010334E-014,2.0));
#122=VERTEX_POINT('',#121);
#123=CARTESIAN_POINT('',(0.0,0.0,2.0));
#124=DIRECTION('',(0.0,0.0,-1.0));
#125=DIRECTION('',(-1.0,0.0,0.0));
#126=AXIS2_PLACEMENT_3D('',#123,#124,#125);
#127=CIRCLE('',#126,82.500000000000000);
#128=EDGE_CURVE('',#122,#122,#127,.T.);
#129=ORIENTED_EDGE('',*,*,#128,.T.);
#130=EDGE_LOOP('',(#129));
#131=FACE_OUTER_BOUND('',#130,.T.);
#132=CARTESIAN_POINT('',(82.500000000000000,1.010334E-014,0.0));
#133=VERTEX_POINT('',#132);
#134=CARTESIAN_POINT('',(0.0,0.0,0.0));
#135=DIRECTION('',(0.0,0.0,-1.0));
#136=DIRECTION('',(-1.0,0.0,0.0));
#137=AXIS2_PLACEMENT_3D('',#134,#135,#136);
#138=CIRCLE('',#137,82.500000000000000);
#139=EDGE_CURVE('',#133,#133,#138,.T.);
#140=ORIENTED_EDGE('',*,*,#139,.F.);
#141=EDGE_LOOP('',(#140));
#142=FACE_BOUND('',#141,.T.);
#143=ADVANCED_FACE('',(#131,#142),#120,.T.);
#144=CARTESIAN_POINT('',(0.0,0.0,2.0));
#145=DIRECTION('',(0.0,0.0,-1.0));
#146=DIRECTION('',(-1.0,0.0,0.0));
#147=AXIS2_PLACEMENT_3D('',#144,#145,#146);
#148=PLANE('',#147);
#149=ORIENTED_EDGE('',*,*,#128,.F.);
#150=EDGE_LOOP('',(#149));
#151=FACE_OUTER_BOUND('',#150,.T.);
#152=CARTESIAN_POINT('',(0.004474272817621,-76.499999869156085,2.0));
#153=CARTESIAN_POINT('',(0.005965800490965,-76.499999956387910,2.0));
#154=CARTESIAN_POINT('',(0.007457284561028,-76.500000000000000,2.0));
#155=CARTESIAN_POINT('',(2.369374680179265,-76.500000000000000,2.0));
#156=CARTESIAN_POINT('',(4.839058705037548,-76.389009246242836,2.0));
#157=CARTESIAN_POINT('',(9.859337543889788,-75.905116703739608,2.0));
#158=CARTESIAN_POINT('',(12.409924154518123,-75.532129810653799,2.0));
#159=CARTESIAN_POINT('',(17.458605009934484,-74.527912322156112,2.0));
#160=CARTESIAN_POINT('',(19.957782491459533,-73.896466282837025,2.0));
#161=CARTESIAN_POINT('',(24.781109683463846,-72.422399842077084,2.0));
#162=CARTESIAN_POINT('',(27.105284390527981,-71.579861233785408,2.0));
#163=CARTESIAN_POINT('',(31.466793519921595,-69.773327211384938,2.0));
#164=CARTESIAN_POINT('',(33.706012195169016,-68.725712738994559,2.0));
#165=CARTESIAN_POINT('',(38.158977380294559,-66.357549982422668,2.0));
#166=CARTESIAN_POINT('',(40.372683731972998,-65.036926187706271,2.0));
#167=CARTESIAN_POINT('',(44.652777309636207,-62.177179426703582,2.0));
#168=CARTESIAN_POINT('',(46.720082845279421,-60.637442858873413,2.0));
#169=CARTESIAN_POINT('',(50.612176515730951,-57.429844402450698,2.0));
#170=CARTESIAN_POINT('',(52.437019008389605,-55.762048472136421,2.0));
#171=CARTESIAN_POINT('',(55.775169817087104,-52.424050508858770,2.0));
#172=CARTESIAN_POINT('',(57.442997824167897,-50.599346247062023,2.0));
#173=CARTESIAN_POINT('',(60.650674831597378,-46.707531555544676,2.0));
#174=CARTESIAN_POINT('',(62.190457791070756,-44.640366694669694,2.0));
#175=CARTESIAN_POINT('',(65.050301997770703,-40.360545074757908,2.0));
#176=CARTESIAN_POINT('',(66.370976825998596,-38.146969921124231,2.0));
#177=CARTESIAN_POINT('',(68.739236018338261,-33.694248189178474,2.0));
#178=CARTESIAN_POINT('',(69.786895811885913,-31.455141729762282,2.0));
#179=CARTESIAN_POINT('',(71.593461116580983,-27.093942890529476,2.0));
#180=CARTESIAN_POINT('',(72.435996603959126,-24.769987509657263,2.0));
#181=CARTESIAN_POINT('',(73.910061486132804,-19.947105143765057,2.0));
#182=CARTESIAN_POINT('',(74.541509016420790,-17.448153138071838,2.0));
#183=CARTESIAN_POINT('',(75.545730175418782,-12.399919202467284,2.0));
#184=CARTESIAN_POINT('',(75.918719252481807,-9.849553907236675,2.0));
#185=CARTESIAN_POINT('',(76.402614642867704,-4.829704497492933,2.0));
#186=CARTESIAN_POINT('',(76.513606071854397,-2.360228588187174,2.0));
#187=CARTESIAN_POINT('',(76.513606071854397,2.360228588187155,2.0));
#188=CARTESIAN_POINT('',(76.402614642867718,4.829704497492914,2.0));
#189=CARTESIAN_POINT('',(75.918719252481822,9.849553907236654,2.0));
#190=CARTESIAN_POINT('',(75.545730175418768,12.399919202467263,2.0));
#191=CARTESIAN_POINT('',(74.541509016420790,17.448153138071817,2.0));
#192=CARTESIAN_POINT('',(73.910061486132804,19.947105143765040,2.0));
#193=CARTESIAN_POINT('',(72.435996603959126,24.769987509657238,2.0));
#194=CARTESIAN_POINT('',(71.593461116580983,27.093942890529451,2.0));
#195=CARTESIAN_POINT('',(69.786895811885927,31.455141729762268,2.0));
#196=CARTESIAN_POINT('',(68.739236018338275,33.694248189178460,2.0));
#197=CARTESIAN_POINT('',(66.370976825998596,38.146969921124203,2.0));
#198=CARTESIAN_POINT('',(65.050301997770731,40.360545074757859,2.000000000000000));
#199=CARTESIAN_POINT('',(62.190457791070799,44.640366694669609,2.000000000000000));
#200=CARTESIAN_POINT('',(60.650674831597449,46.707531555544584,2.0));
#201=CARTESIAN_POINT('',(57.442997824167975,50.599346247061945,2.0));
#202=CARTESIAN_POINT('',(55.775169817087203,52.424050508858727,2.0));
#203=CARTESIAN_POINT('',(52.437019008389711,55.762048472136385,2.0));
#204=CARTESIAN_POINT('',(50.612176515731029,57.429844402450627,2.0));
#205=CARTESIAN_POINT('',(46.720082845279492,60.637442858873349,2.0));
#206=CARTESIAN_POINT('',(44.652777309636278,62.177179426703539,2.0));
#207=CARTESIAN_POINT('',(40.372683731973069,65.036926187706257,2.0));
#208=CARTESIAN_POINT('',(38.158977380294616,66.357549982422611,2.0));
#209=CARTESIAN_POINT('',(33.706012195169073,68.725712738994517,2.0));
#210=CARTESIAN_POINT('',(31.466793519921652,69.773327211384938,2.0));
#211=CARTESIAN_POINT('',(27.105284390528009,71.579861233785380,2.0));
#212=CARTESIAN_POINT('',(24.781109683463857,72.422399842077084,2.0));
#213=CARTESIAN_POINT('',(19.957782491459529,73.896466282837025,2.0));
#214=CARTESIAN_POINT('',(17.458605009934484,74.527912322156112,2.0));
#215=CARTESIAN_POINT('',(12.409924154518119,75.532129810653799,2.0));
#216=CARTESIAN_POINT('',(9.859337543889790,75.905116703739608,2.0));
#217=CARTESIAN_POINT('',(4.839058705037550,76.389009246242836,2.0));
#218=CARTESIAN_POINT('',(2.369374680179264,76.500000000000000,2.0));
#219=CARTESIAN_POINT('',(0.007457284561039,76.500000000000000,2.0));
#220=CARTESIAN_POINT('',(0.005965800490954,76.499999956387910,2.0));
#221=CARTESIAN_POINT('',(0.004474272817621,76.499999869156085,2.0));
#222=B_SPLINE_CURVE_WITH_KNOTS('',3,(#152,#153,#154,#155,#156,#157,#158,#159,#160,#161,#162,#163,#164,#165,#166,#167,#168,#169,#170,#171,#172,#173,#174,#175,#176,#177,#178,#179,#180,#181,#182,#183,#184,#185,#186,#187,#188,#189,#190,#191,#192,#193,#194,#195,#196,#197,#198,#199,#200,#201,#202,#203,#204,#205,#206,#207,#208,#209,#210,#211,#212,#213,#214,#215,#216,#217,#218,#219,#220,#221),.UNSPECIFIED.,.F.,.U.,(4,2,2,2,2,2,2,2,2,2,2,2,2,2,2,2,2,2,2,2,2,2,2,2,2,2,2,2,2,2,2,2,2,2,4),(11.329092513026556,11.329539945161386,12.037667731712027,12.745795518262666,13.453923304813305,14.162051091363946,14.870175201683590,15.578299312003233,16.286423422322876,16.994547532642521,17.702648443356193,18.410749354069864,19.118850264783539,19.826951175497211,20.535019751953357,21.243088328409506,21.951156904865655,22.659225481321805,23.367294057777954,24.075362634234104,24.783431210690253,25.491499787146399,26.199600697860070,26.907701608573738,27.615802519287410,28.323903430001081,29.032027540320726,29.740151650640371,30.448275760960016,31.156399871279664,31.864527657830308,32.572655444380949,33.280783230931590,33.988911017482231,33.989358449617058),.UNSPECIFIED.);
#223=EDGE_CURVE('',#76,#96,#222,.T.);
#224=ORIENTED_EDGE('',*,*,#223,.F.);
#225=ORIENTED_EDGE('',*,*,#111,.T.);
#226=EDGE_LOOP('',(#224,#225));
#227=FACE_BOUND('',#226,.T.);
#228=ADVANCED_FACE('',(#151,#227),#148,.F.);
#229=CARTESIAN_POINT('',(223.500000000000000,0.0,0.0));
#230=DIRECTION('',(0.0,1.0,0.0));
#231=DIRECTION('',(0.0,0.0,1.0));
#232=AXIS2_PLACEMENT_3D('',#229,#230,#231);
#233=TOROIDAL_SURFACE('',#232,223.500000000000000,76.500000000000000);
#234=CARTESIAN_POINT('',(7.615577824393465,76.500000000000000,57.846056580414256));
#235=VERTEX_POINT('',#234);
#236=CARTESIAN_POINT('',(7.102261550013807,76.499999869156113,55.913046900775008));
#237=VERTEX_POINT('',#236);
#238=CARTESIAN_POINT('',(7.615577824393465,76.500000000000000,57.846056580414256));
#239=CARTESIAN_POINT('',(7.581870838927578,76.500000000000000,57.720260398085586));
#240=CARTESIAN_POINT('',(7.548212884780515,76.500000000063537,57.594427220322615));
#241=CARTESIAN_POINT('',(7.376223952458092,76.499999998762689,56.950304245923000));
#242=CARTESIAN_POINT('',(7.238772571677867,76.500000009524115,56.431785769474331));
#243=CARTESIAN_POINT('',(7.102261550013800,76.499999869156099,55.913046900775008));
#244=B_SPLINE_CURVE_WITH_KNOTS('',3,(#238,#239,#240,#241,#242,#243),.UNSPECIFIED.,.F.,.U.,(4,2,4),(-3.093022948705998,-3.053959072645293,-2.893048216646594),.UNSPECIFIED.);
#245=EDGE_CURVE('',#235,#237,#244,.T.);
#246=ORIENTED_EDGE('',*,*,#245,.T.);
#247=CARTESIAN_POINT('',(7.102261550013807,-76.499999869156113,55.913046900775008));
#248=VERTEX_POINT('',#247);
#249=CARTESIAN_POINT('',(7.102261550013807,76.499999869156099,55.913046900775008));
#250=CARTESIAN_POINT('',(7.103702255061720,76.499999956387924,55.912660865020889));
#251=CARTESIAN_POINT('',(7.105142917992109,76.500000000000000,55.912274840552136));
#252=CARTESIAN_POINT('',(9.386579929928795,76.500000000000000,55.300965635621225));
#253=CARTESIAN_POINT('',(11.772111512312943,76.389009246242836,54.661764374602456));
#254=CARTESIAN_POINT('',(16.621328497932840,75.905116703739608,53.362420599382318));
#255=CARTESIAN_POINT('',(19.085005977325860,75.532129810653799,52.702280208368208));
#256=CARTESIAN_POINT('',(23.961657204263727,74.527912322156098,51.395585450341954));
#257=CARTESIAN_POINT('',(26.375677278148842,73.896466282837011,50.748750721031911));
#258=CARTESIAN_POINT('',(31.034653581548149,72.422399842077056,49.500381782980334));
#259=CARTESIAN_POINT('',(33.279633955909254,71.579861233785351,48.898841104646571));
#260=CARTESIAN_POINT('',(37.492528265586103,69.773327211384895,47.769999476570987));
#261=CARTESIAN_POINT('',(39.655447414716384,68.725712738994503,47.190447037267717));
#262=CARTESIAN_POINT('',(43.956681490595244,66.357549982422597,46.037934840178742));
#263=CARTESIAN_POINT('',(46.094957627501572,65.036926187706200,45.464985476099940));
#264=CARTESIAN_POINT('',(50.229210553100444,62.177179426703489,44.357215743379719));
#265=CARTESIAN_POINT('',(52.226074360808575,60.637442858873314,43.822157698709383));
#266=CARTESIAN_POINT('',(55.985548155433911,57.429844402450598,42.814809731473559));
#267=CARTESIAN_POINT('',(57.748210648002683,55.762048472136385,42.342505740061142));
#268=CARTESIAN_POINT('',(60.972616726171324,52.424050508858727,41.478528735345854));
#269=CARTESIAN_POINT('',(62.583614872018806,50.599346247061945,41.046863083157980));
#270=CARTESIAN_POINT('',(65.681992935888545,46.707531555544605,40.216655183097771));
#271=CARTESIAN_POINT('',(67.169309063323681,44.640366694669638,39.818130027861741));
#272=CARTESIAN_POINT('',(69.931706441738328,40.360545074757866,39.077947881141682));
#273=CARTESIAN_POINT('',(71.207380366453535,38.146969921124210,38.736132083208801));
#274=CARTESIAN_POINT('',(73.494943083680909,33.694248189178474,38.123181500492180));
#275=CARTESIAN_POINT('',(74.506904735433238,31.455141729762282,37.852027193133885));
#276=CARTESIAN_POINT('',(76.251912820115990,27.093942890529476,37.384453686057356));
#277=CARTESIAN_POINT('',(77.065739606939573,24.769987509657241,37.166389455749155));
#278=CARTESIAN_POINT('',(78.489576946256875,19.947105143765029,36.784873390525803));
#279=CARTESIAN_POINT('',(79.099508423708528,17.448153138071817,36.621442743704321));
#280=CARTESIAN_POINT('',(80.069511576490626,12.399919202467263,36.361531182260705));
#281=CARTESIAN_POINT('',(80.429791358949501,9.849553907236651,36.264994505501598));
#282=CARTESIAN_POINT('',(80.897198413745457,4.829704497492912,36.139753162632417));
#283=CARTESIAN_POINT('',(81.004407901500471,2.360228588187156,36.111026466967502));
#284=CARTESIAN_POINT('',(81.004407901500471,-2.360228588187173,36.111026466967502));
#285=CARTESIAN_POINT('',(80.897198413745457,-4.829704497492924,36.139753162632417));
#286=CARTESIAN_POINT('',(80.429791358949501,-9.849553907236656,36.264994505501598));
#287=CARTESIAN_POINT('',(80.069511576490626,-12.399919202467265,36.361531182260705));
#288=CARTESIAN_POINT('',(79.099508423708528,-17.448153138071813,36.621442743704321));
#289=CARTESIAN_POINT('',(78.489576946256875,-19.947105143765025,36.784873390525803));
#290=CARTESIAN_POINT('',(77.065739606939573,-24.769987509657234,37.166389455749155));
#291=CARTESIAN_POINT('',(76.251912820115990,-27.093942890529462,37.384453686057356));
#292=CARTESIAN_POINT('',(74.506904735433238,-31.455141729762278,37.852027193133885));
#293=CARTESIAN_POINT('',(73.494943083680880,-33.694248189178481,38.123181500492187));
#294=CARTESIAN_POINT('',(71.207380366453478,-38.146969921124231,38.736132083208815));
#295=CARTESIAN_POINT('',(69.931706441738328,-40.360545074757894,39.077947881141675));
#296=CARTESIAN_POINT('',(67.169309063323681,-44.640366694669652,39.818130027861727));
#297=CARTESIAN_POINT('',(65.681992935888530,-46.707531555544591,40.216655183097771));
#298=CARTESIAN_POINT('',(62.583614872018757,-50.599346247061945,41.046863083157980));
#299=CARTESIAN_POINT('',(60.972616726171260,-52.424050508858770,41.478528735345861));
#300=CARTESIAN_POINT('',(57.748210648002612,-55.762048472136421,42.342505740061156));
#301=CARTESIAN_POINT('',(55.985548155433840,-57.429844402450634,42.814809731473574));
#302=CARTESIAN_POINT('',(52.226074360808504,-60.637442858873349,43.822157698709397));
#303=CARTESIAN_POINT('',(50.229210553100373,-62.177179426703532,44.357215743379740));
#304=CARTESIAN_POINT('',(46.094957627501500,-65.036926187706229,45.464985476099962));
#305=CARTESIAN_POINT('',(43.956681490595166,-66.357549982422640,46.037934840178764));
#306=CARTESIAN_POINT('',(39.655447414716306,-68.725712738994531,47.190447037267731));
#307=CARTESIAN_POINT('',(37.492528265586017,-69.773327211384938,47.769999476571016));
#308=CARTESIAN_POINT('',(33.279633955909162,-71.579861233785380,48.898841104646600));
#309=CARTESIAN_POINT('',(31.034653581548099,-72.422399842077084,49.500381782980355));
#310=CARTESIAN_POINT('',(26.375677278148807,-73.896466282837025,50.748750721031932));
#311=CARTESIAN_POINT('',(23.961657204263680,-74.527912322156098,51.395585450341969));
#312=CARTESIAN_POINT('',(19.085005977325828,-75.532129810653799,52.702280208368215));
#313=CARTESIAN_POINT('',(16.621328497932804,-75.905116703739623,53.362420599382325));
#314=CARTESIAN_POINT('',(11.772111512312923,-76.389009246242836,54.661764374602456));
#315=CARTESIAN_POINT('',(9.386579929928789,-76.500000000000000,55.300965635621225));
#316=CARTESIAN_POINT('',(7.105142917992119,-76.500000000000000,55.912274840552136));
#317=CARTESIAN_POINT('',(7.103702255061709,-76.499999956387924,55.912660865020889));
#318=CARTESIAN_POINT('',(7.102261550013807,-76.499999869156099,55.913046900775008));
#319=B_SPLINE_CURVE_WITH_KNOTS('',3,(#249,#250,#251,#252,#253,#254,#255,#256,#257,#258,#259,#260,#261,#262,#263,#264,#265,#266,#267,#268,#269,#270,#271,#272,#273,#274,#275,#276,#277,#278,#279,#280,#281,#282,#283,#284,#285,#286,#287,#288,#289,#290,#291,#292,#293,#294,#295,#296,#297,#298,#299,#300,#301,#302,#303,#304,#305,#306,#307,#308,#309,#310,#311,#312,#313,#314,#315,#316,#317,#318),.UNSPECIFIED.,.F.,.U.,(4,2,2,2,2,2,2,2,2,2,2,2,2,2,2,2,2,2,2,2,2,2,2,2,2,2,2,2,2,2,2,2,2,2,4),(11.329092513042825,11.329539945161384,12.037667731712027,12.745795518262669,13.453923304813312,14.162051091363955,14.870175201683601,15.578299312003246,16.286423422322891,16.994547532642535,17.702648443356203,18.410749354069875,19.118850264783546,19.826951175497214,20.535019751953364,21.243088328409513,21.951156904865663,22.659225481321812,23.367294057777961,24.075362634234111,24.783431210690260,25.491499787146410,26.199600697860081,26.907701608573753,27.615802519287424,28.323903430001096,29.032027540320740,29.740151650640385,30.448275760960030,31.156399871279678,31.864527657830315,32.572655444380956,33.280783230931597,33.988911017482238,33.989358449600793),.UNSPECIFIED.);
#320=EDGE_CURVE('',#237,#248,#319,.T.);
#321=ORIENTED_EDGE('',*,*,#320,.T.);
#322=CARTESIAN_POINT('',(7.615577824393465,-76.500000000000000,57.846056580414256));
#323=VERTEX_POINT('',#322);
#324=CARTESIAN_POINT('',(7.102261550013800,-76.499999869156099,55.913046900775008));
#325=CARTESIAN_POINT('',(7.238772571678267,-76.500000009524115,56.431785769475844));
#326=CARTESIAN_POINT('',(7.376223952458471,-76.499999998762689,56.950304245924528));
#327=CARTESIAN_POINT('',(7.548212884774905,-76.500000000063537,57.594427220301483));
#328=CARTESIAN_POINT('',(7.581870838933233,-76.500000000000000,57.720260398106689));
#329=CARTESIAN_POINT('',(7.615577824393465,-76.500000000000000,57.846056580414256));
#330=B_SPLINE_CURVE_WITH_KNOTS('',3,(#324,#325,#326,#327,#328,#329),.UNSPECIFIED.,.F.,.U.,(4,2,4),(-0.160936647311958,0.0,0.039070137338864),.UNSPECIFIED.);
#331=EDGE_CURVE('',#248,#323,#330,.T.);
#332=ORIENTED_EDGE('',*,*,#331,.T.);
#333=CARTESIAN_POINT('',(7.615577824393245,0.0,57.846056580413446));
#334=DIRECTION('',(-0.258819045102521,0.0,-0.965925826289068));
#335=DIRECTION('',(-0.965925826289068,0.0,0.258819045102521));
#336=AXIS2_PLACEMENT_3D('',#333,#334,#335);
#337=CIRCLE('',#336,76.500000000000000);
#338=EDGE_CURVE('',#323,#235,#337,.T.);
#339=ORIENTED_EDGE('',*,*,#338,.T.);
#340=EDGE_LOOP('',(#246,#321,#332,#339));
#341=FACE_OUTER_BOUND('',#340,.T.);
#342=ORIENTED_EDGE('',*,*,#84,.T.);
#343=ORIENTED_EDGE('',*,*,#223,.T.);
#344=ORIENTED_EDGE('',*,*,#104,.T.);
#345=ORIENTED_EDGE('',*,*,#93,.F.);
#346=EDGE_LOOP('',(#342,#343,#344,#345));
#347=FACE_BOUND('',#346,.T.);
#348=ADVANCED_FACE('',(#341,#347),#233,.T.);
#349=CARTESIAN_POINT('',(7.615577824393245,0.0,57.846056580413446));
#350=DIRECTION('',(-0.258819045102525,0.0,-0.965925826289067));
#351=DIRECTION('',(-0.965925826289067,0.0,0.258819045102525));
#352=AXIS2_PLACEMENT_3D('',#349,#350,#351);
#353=CYLINDRICAL_SURFACE('',#352,76.500000000000014);
#354=ORIENTED_EDGE('',*,*,#245,.F.);
#355=ORIENTED_EDGE('',*,*,#338,.F.);
#356=ORIENTED_EDGE('',*,*,#331,.F.);
#357=CARTESIAN_POINT('',(7.097939734188197,0.0,55.914204927835314));
#358=DIRECTION('',(0.258819045102525,0.0,0.965925826289067));
#359=DIRECTION('',(-0.965925826289067,0.0,0.258819045102525));
#360=AXIS2_PLACEMENT_3D('',#357,#358,#359);
#361=CIRCLE('',#360,76.500000000000014);
#362=EDGE_CURVE('',#237,#248,#361,.T.);
#363=ORIENTED_EDGE('',*,*,#362,.F.);
#364=EDGE_LOOP('',(#354,#355,#356,#363));
#365=FACE_OUTER_BOUND('',#364,.T.);
#366=ADVANCED_FACE('',(#365),#353,.F.);
#367=CARTESIAN_POINT('',(7.615577824393245,0.0,57.846056580413446));
#368=DIRECTION('',(-0.258819045102525,0.0,-0.965925826289067));
#369=DIRECTION('',(-0.965925826289067,0.0,0.258819045102525));
#370=AXIS2_PLACEMENT_3D('',#367,#368,#369);
#371=CYLINDRICAL_SURFACE('',#370,82.500000000000028);
#372=CARTESIAN_POINT('',(86.786820403036344,1.010334E-014,34.561633706877330));
#373=VERTEX_POINT('',#372);
#374=CARTESIAN_POINT('',(7.097939734188179,-3.944305E-030,55.914204927835328));
#375=DIRECTION('',(0.258819045102521,0.0,0.965925826289068));
#376=DIRECTION('',(-0.965925826289068,0.0,0.258819045102521));
#377=AXIS2_PLACEMENT_3D('',#374,#375,#376);
#378=CIRCLE('',#377,82.500000000000043);
#379=EDGE_CURVE('',#373,#373,#378,.T.);
#380=ORIENTED_EDGE('',*,*,#379,.T.);
#381=EDGE_LOOP('',(#380));
#382=FACE_OUTER_BOUND('',#381,.T.);
#383=CARTESIAN_POINT('',(87.304458493241398,1.010334E-014,36.493485359455462));
#384=VERTEX_POINT('',#383);
#385=CARTESIAN_POINT('',(7.615577824393245,0.0,57.846056580413446));
#386=DIRECTION('',(-0.258819045102521,0.0,-0.965925826289068));
#387=DIRECTION('',(-0.965925826289068,0.0,0.258819045102521));
#388=AXIS2_PLACEMENT_3D('',#385,#386,#387);
#389=CIRCLE('',#388,82.500000000000014);
#390=EDGE_CURVE('',#384,#384,#389,.T.);
#391=ORIENTED_EDGE('',*,*,#390,.T.);
#392=EDGE_LOOP('',(#391));
#393=FACE_BOUND('',#392,.T.);
#394=ADVANCED_FACE('',(#382,#393),#371,.T.);
#395=CARTESIAN_POINT('',(7.097939734188179,-3.944305E-030,55.914204927835328));
#396=DIRECTION('',(-0.258819045102521,0.0,-0.965925826289068));
#397=DIRECTION('',(-0.965925826289068,0.0,0.258819045102521));
#398=AXIS2_PLACEMENT_3D('',#395,#396,#397);
#399=PLANE('',#398);
#400=ORIENTED_EDGE('',*,*,#379,.F.);
#401=EDGE_LOOP('',(#400));
#402=FACE_OUTER_BOUND('',#401,.T.);
#403=ORIENTED_EDGE('',*,*,#320,.F.);
#404=ORIENTED_EDGE('',*,*,#362,.T.);
#405=EDGE_LOOP('',(#403,#404));
#406=FACE_BOUND('',#405,.T.);
#407=ADVANCED_FACE('',(#402,#406),#399,.T.);
#408=CARTESIAN_POINT('',(223.500000000000000,0.0,0.0));
#409=DIRECTION('',(0.0,1.0,0.0));
#410=DIRECTION('',(0.0,0.0,1.0));
#411=AXIS2_PLACEMENT_3D('',#408,#409,#410);
#412=TOROIDAL_SURFACE('',#411,223.500000000000000,74.500000000000000);
#413=CARTESIAN_POINT('',(79.577051882928828,9.123619E-015,38.564037720275628));
#414=VERTEX_POINT('',#413);
#415=CARTESIAN_POINT('',(7.615577824393256,0.0,57.846056580413446));
#416=DIRECTION('',(-0.258819045102521,0.0,-0.965925826289068));
#417=DIRECTION('',(-0.965925826289068,0.0,0.258819045102521));
#418=AXIS2_PLACEMENT_3D('',#415,#416,#417);
#419=CIRCLE('',#418,74.500000000000000);
#420=EDGE_CURVE('',#414,#414,#419,.T.);
#421=ORIENTED_EDGE('',*,*,#420,.F.);
#422=EDGE_LOOP('',(#421));
#423=FACE_OUTER_BOUND('',#422,.T.);
#424=CARTESIAN_POINT('',(74.500000000000000,9.123619E-015,0.0));
#425=VERTEX_POINT('',#424);
#426=CARTESIAN_POINT('',(0.0,0.0,0.0));
#427=DIRECTION('',(0.0,0.0,1.0));
#428=DIRECTION('',(-1.0,0.0,0.0));
#429=AXIS2_PLACEMENT_3D('',#426,#427,#428);
#430=CIRCLE('',#429,74.500000000000000);
#431=EDGE_CURVE('',#425,#425,#430,.T.);
#432=ORIENTED_EDGE('',*,*,#431,.F.);
#433=EDGE_LOOP('',(#432));
#434=FACE_BOUND('',#433,.T.);
#435=ADVANCED_FACE('',(#423,#434),#412,.F.);
#436=CARTESIAN_POINT('',(7.615577824393245,0.0,57.846056580413446));
#437=DIRECTION('',(-0.258819045102521,0.0,-0.965925826289068));
#438=DIRECTION('',(-0.965925826289068,0.0,0.258819045102521));
#439=AXIS2_PLACEMENT_3D('',#436,#437,#438);
#440=PLANE('',#439);
#441=ORIENTED_EDGE('',*,*,#390,.F.);
#442=EDGE_LOOP('',(#441));
#443=FACE_OUTER_BOUND('',#442,.T.);
#444=ORIENTED_EDGE('',*,*,#420,.T.);
#445=EDGE_LOOP('',(#444));
#446=FACE_BOUND('',#445,.T.);
#447=CARTESIAN_POINT('',(7.615577824393245,0.0,57.846056580413446));
#448=DIRECTION('',(-0.258819045102521,0.0,-0.965925826289068));
#449=DIRECTION('',(-0.965925826289068,0.0,0.258819045102521));
#450=AXIS2_PLACEMENT_3D('',#447,#448,#449);
#451=CIRCLE('',#450,76.500000000000000);
#452=EDGE_CURVE('',#323,#235,#451,.T.);
#453=ORIENTED_EDGE('',*,*,#452,.F.);
#454=ORIENTED_EDGE('',*,*,#452,.T.);
#455=EDGE_LOOP('',(#453,#454));
#456=FACE_BOUND('',#455,.T.);
#457=ADVANCED_FACE('',(#443,#446,#456),#440,.F.);
#458=CARTESIAN_POINT('',(0.0,0.0,0.0));
#459=DIRECTION('',(0.0,0.0,-1.0));
#460=DIRECTION('',(-1.0,0.0,0.0));
#461=AXIS2_PLACEMENT_3D('',#458,#459,#460);
#462=PLANE('',#461);
#463=ORIENTED_EDGE('',*,*,#139,.T.);
#464=EDGE_LOOP('',(#463));
#465=FACE_OUTER_BOUND('',#464,.T.);
#466=ORIENTED_EDGE('',*,*,#431,.T.);
#467=EDGE_LOOP('',(#466));
#468=FACE_BOUND('',#467,.T.);
#469=CARTESIAN_POINT('',(0.0,0.0,0.0));
#470=DIRECTION('',(0.0,0.0,-1.0));
#471=DIRECTION('',(-1.0,0.0,0.0));
#472=AXIS2_PLACEMENT_3D('',#469,#470,#471);
#473=CIRCLE('',#472,76.500000000000000);
#474=EDGE_CURVE('',#74,#87,#473,.T.);
#475=ORIENTED_EDGE('',*,*,#474,.T.);
#476=ORIENTED_EDGE('',*,*,#474,.F.);
#477=EDGE_LOOP('',(#475,#476));
#478=FACE_BOUND('',#477,.T.);
#479=ADVANCED_FACE('',(#465,#468,#478),#462,.T.);
#480=CLOSED_SHELL('',(#115,#143,#228,#348,#366,#394,#407,#435,#457,#479));
#481=MANIFOLD_SOLID_BREP('Volumenk\S\vrper1',#480);
#482=COLOUR_RGB('Standard',0.752941012382507,0.752941012382507,0.752941012382507);
#483=FILL_AREA_STYLE_COLOUR('Standard',#482);
#484=FILL_AREA_STYLE('Standard',(#483));
#485=SURFACE_STYLE_FILL_AREA(#484);
#486=SURFACE_SIDE_STYLE('Standard',(#485));
#487=SURFACE_STYLE_USAGE(.BOTH.,#486);
#488=PRESENTATION_STYLE_ASSIGNMENT((#487));
#489=STYLED_ITEM('',(#488),#481);
#490=MECHANICAL_DESIGN_GEOMETRIC_PRESENTATION_REPRESENTATION('',(#489),#36);
#491=ADVANCED_BREP_SHAPE_REPRESENTATION('ABSR',(#481),#36);
#492=SHAPE_REPRESENTATION_RELATIONSHIP('SRR','None',#491,#41);
ENDSEC;
END-ISO-10303-21;
