ISO-10303-21;
HEADER;
/****************************************************************
 * Generated by software with PDE/Lib inside                    *
 * PDElib Version v51a, created Thu 12/14/2006                  *
 * International Technegroup Inc. (www.iti-oh.com)              *
 ****************************************************************/
FILE_DESCRIPTION((''),'2;1');
FILE_NAME('D:\\$work\\Schmelzer_Katalog\\Step\\Gabelstueck_1x45grad.stp','2007-12-18T07:08:46',('BBA'),(''),'Autodesk Inventor 2008','Autodesk Inventor 2008','');
FILE_SCHEMA(('AUTOMOTIVE_DESIGN { 1 0 10303 214 1 1 1 1 }'));
ENDSEC;
DATA;
#5=APPLICATION_CONTEXT('automotive design');
#6=APPLICATION_PROTOCOL_DEFINITION('International Standard','automotive_design',2001,#5);
#7=PRODUCT_CONTEXT('',#5,'mechanical');
#8=PRODUCT('4010008015665_Gabelstueck_1x45grad','4010008015665_Gabelstueck_1x45grad',$,(#7));
#9=PRODUCT_RELATED_PRODUCT_CATEGORY('part',$,(#8));
#10=PRODUCT_DEFINITION_FORMATION('',$,#8);
#11=PRODUCT_DEFINITION_CONTEXT('part definition',#5,'design');
#12=PRODUCT_DEFINITION('',$,#10,#11);
#18=(NAMED_UNIT(*)PLANE_ANGLE_UNIT()SI_UNIT($,.RADIAN.));
#19=DIMENSIONAL_EXPONENTS(0.0,0.0,0.0,0.0,0.0,0.0,0.0);
#20=PLANE_ANGLE_MEASURE_WITH_UNIT(PLANE_ANGLE_MEASURE(0.017453292500000),#18);
#24=(CONVERSION_BASED_UNIT('DEGREE',#20)NAMED_UNIT(#19)PLANE_ANGLE_UNIT());
#28=(NAMED_UNIT(*)SI_UNIT($,.STERADIAN.)SOLID_ANGLE_UNIT());
#32=(LENGTH_UNIT()NAMED_UNIT(*)SI_UNIT(.MILLI.,.METRE.));
#34=UNCERTAINTY_MEASURE_WITH_UNIT(LENGTH_MEASURE(0.010000000000000),#32,'DISTANCE_ACCURACY_VALUE','');
#36=(GEOMETRIC_REPRESENTATION_CONTEXT(3)GLOBAL_UNCERTAINTY_ASSIGNED_CONTEXT((#34))GLOBAL_UNIT_ASSIGNED_CONTEXT((#24,#28,#32))REPRESENTATION_CONTEXT('None','None'));
#37=AXIS2_PLACEMENT_3D('',#38,#39,#40);
#38=CARTESIAN_POINT('',(0.0,0.0,0.0));
#39=DIRECTION('',(0.0,0.0,1.0));
#40=DIRECTION('',(1.0,0.0,0.0));
#41=SHAPE_REPRESENTATION('',(#37),#36);
#42=PRODUCT_DEFINITION_SHAPE('','',#12);
#43=SHAPE_DEFINITION_REPRESENTATION(#42,#41);
#49=(NAMED_UNIT(*)PLANE_ANGLE_UNIT()SI_UNIT($,.RADIAN.));
#50=DIMENSIONAL_EXPONENTS(0.0,0.0,0.0,0.0,0.0,0.0,0.0);
#51=PLANE_ANGLE_MEASURE_WITH_UNIT(PLANE_ANGLE_MEASURE(0.017453292500000),#49);
#55=(CONVERSION_BASED_UNIT('DEGREE',#51)NAMED_UNIT(#50)PLANE_ANGLE_UNIT());
#59=(NAMED_UNIT(*)SI_UNIT($,.STERADIAN.)SOLID_ANGLE_UNIT());
#63=(LENGTH_UNIT()NAMED_UNIT(*)SI_UNIT(.MILLI.,.METRE.));
#65=UNCERTAINTY_MEASURE_WITH_UNIT(LENGTH_MEASURE(0.000001000000000),#63,'DISTANCE_ACCURACY_VALUE','');
#67=(GEOMETRIC_REPRESENTATION_CONTEXT(3)GLOBAL_UNCERTAINTY_ASSIGNED_CONTEXT((#65))GLOBAL_UNIT_ASSIGNED_CONTEXT((#55,#59,#63))REPRESENTATION_CONTEXT('','3D'));
#68=CARTESIAN_POINT('',(0.0,0.0,298.500000000000000));
#69=DIRECTION('',(0.0,0.0,-1.0));
#70=DIRECTION('',(-1.0,0.0,0.0));
#71=AXIS2_PLACEMENT_3D('',#68,#69,#70);
#72=PLANE('',#71);
#73=CARTESIAN_POINT('',(80.0,0.0,298.500000000000000));
#74=VERTEX_POINT('',#73);
#75=CARTESIAN_POINT('',(0.0,0.0,298.500000000000000));
#76=DIRECTION('',(0.0,0.0,1.0));
#77=DIRECTION('',(1.0,0.0,0.0));
#78=AXIS2_PLACEMENT_3D('',#75,#76,#77);
#79=CIRCLE('',#78,80.0);
#80=EDGE_CURVE('',#74,#74,#79,.T.);
#81=ORIENTED_EDGE('',*,*,#80,.F.);
#82=EDGE_LOOP('',(#81));
#83=FACE_OUTER_BOUND('',#82,.T.);
#84=CARTESIAN_POINT('',(-75.0,0.0,298.500000000000000));
#85=VERTEX_POINT('',#84);
#86=CARTESIAN_POINT('',(0.0,0.0,298.500000000000000));
#87=DIRECTION('',(0.0,0.0,-1.0));
#88=DIRECTION('',(-1.0,0.0,0.0));
#89=AXIS2_PLACEMENT_3D('',#86,#87,#88);
#90=CIRCLE('',#89,75.0);
#91=EDGE_CURVE('',#85,#85,#90,.T.);
#92=ORIENTED_EDGE('',*,*,#91,.F.);
#93=EDGE_LOOP('',(#92));
#94=FACE_BOUND('',#93,.T.);
#95=ADVANCED_FACE('',(#83,#94),#72,.T.);
#96=CARTESIAN_POINT('',(0.0,0.0,300.0));
#97=DIRECTION('',(0.0,0.0,1.0));
#98=DIRECTION('',(-1.0,0.0,0.0));
#99=AXIS2_PLACEMENT_3D('',#96,#97,#98);
#100=CYLINDRICAL_SURFACE('',#99,80.0);
#101=ORIENTED_EDGE('',*,*,#80,.T.);
#102=EDGE_LOOP('',(#101));
#103=FACE_OUTER_BOUND('',#102,.T.);
#104=CARTESIAN_POINT('',(-80.0,0.0,300.0));
#105=VERTEX_POINT('',#104);
#106=CARTESIAN_POINT('',(0.0,0.0,300.0));
#107=DIRECTION('',(0.0,0.0,-1.0));
#108=DIRECTION('',(-1.0,0.0,0.0));
#109=AXIS2_PLACEMENT_3D('',#106,#107,#108);
#110=CIRCLE('',#109,80.0);
#111=EDGE_CURVE('',#105,#105,#110,.T.);
#112=ORIENTED_EDGE('',*,*,#111,.T.);
#113=EDGE_LOOP('',(#112));
#114=FACE_BOUND('',#113,.T.);
#115=ADVANCED_FACE('',(#103,#114),#100,.T.);
#116=CARTESIAN_POINT('',(0.0,0.0,300.0));
#117=DIRECTION('',(0.0,0.0,1.0));
#118=DIRECTION('',(-1.0,0.0,0.0));
#119=AXIS2_PLACEMENT_3D('',#116,#117,#118);
#120=CYLINDRICAL_SURFACE('',#119,73.500000000000000);
#121=CARTESIAN_POINT('',(-73.500000000000000,0.0,300.0));
#122=VERTEX_POINT('',#121);
#123=CARTESIAN_POINT('',(0.0,0.0,300.0));
#124=DIRECTION('',(0.0,0.0,-1.0));
#125=DIRECTION('',(-1.0,0.0,0.0));
#126=AXIS2_PLACEMENT_3D('',#123,#124,#125);
#127=CIRCLE('',#126,73.500000000000000);
#128=EDGE_CURVE('',#122,#122,#127,.T.);
#129=ORIENTED_EDGE('',*,*,#128,.F.);
#130=EDGE_LOOP('',(#129));
#131=FACE_OUTER_BOUND('',#130,.T.);
#132=CARTESIAN_POINT('',(-73.500000000000000,0.0,200.0));
#133=VERTEX_POINT('',#132);
#134=CARTESIAN_POINT('',(73.500000000000000,0.0,200.0));
#135=VERTEX_POINT('',#134);
#136=CARTESIAN_POINT('',(0.0,-1.387779E-014,200.0));
#137=DIRECTION('',(0.0,-0.923879532511287,-0.382683432365090));
#138=DIRECTION('',(0.0,-0.382683432365090,0.923879532511287));
#139=AXIS2_PLACEMENT_3D('',#136,#137,#138);
#140=ELLIPSE('',#139,192.064755836827000,73.500000000000000);
#141=EDGE_CURVE('',#133,#135,#140,.T.);
#142=ORIENTED_EDGE('',*,*,#141,.F.);
#143=CARTESIAN_POINT('',(0.0,-1.387779E-014,200.0));
#144=DIRECTION('',(0.0,-0.382683432365090,0.923879532511287));
#145=DIRECTION('',(0.0,-0.923879532511287,-0.382683432365090));
#146=AXIS2_PLACEMENT_3D('',#143,#144,#145);
#147=ELLIPSE('',#146,79.555826721491016,73.500000000000014);
#148=EDGE_CURVE('',#135,#133,#147,.T.);
#149=ORIENTED_EDGE('',*,*,#148,.F.);
#150=EDGE_LOOP('',(#142,#149));
#151=FACE_BOUND('',#150,.T.);
#152=CARTESIAN_POINT('',(73.500000000000000,0.0,-50.0));
#153=VERTEX_POINT('',#152);
#154=CARTESIAN_POINT('',(0.0,0.0,-50.0));
#155=DIRECTION('',(0.0,0.0,1.0));
#156=DIRECTION('',(1.0,0.0,0.0));
#157=AXIS2_PLACEMENT_3D('',#154,#155,#156);
#158=CIRCLE('',#157,73.500000000000000);
#159=EDGE_CURVE('',#153,#153,#158,.T.);
#160=ORIENTED_EDGE('',*,*,#159,.F.);
#161=EDGE_LOOP('',(#160));
#162=FACE_BOUND('',#161,.T.);
#163=ADVANCED_FACE('',(#131,#151,#162),#120,.F.);
#164=CARTESIAN_POINT('',(0.0,141.421356237310020,58.578643762690504));
#165=DIRECTION('',(0.0,0.707106781186548,-0.707106781186547));
#166=DIRECTION('',(1.0,0.0,0.0));
#167=AXIS2_PLACEMENT_3D('',#164,#165,#166);
#168=CYLINDRICAL_SURFACE('',#167,73.500000000000000);
#169=CARTESIAN_POINT('',(73.500000000000000,176.776695296637000,23.223304703363201));
#170=VERTEX_POINT('',#169);
#171=CARTESIAN_POINT('',(0.0,176.776695296637000,23.223304703363201));
#172=DIRECTION('',(0.0,-0.707106781186548,0.707106781186547));
#173=DIRECTION('',(1.0,0.0,0.0));
#174=AXIS2_PLACEMENT_3D('',#171,#172,#173);
#175=CIRCLE('',#174,73.500000000000000);
#176=EDGE_CURVE('',#170,#170,#175,.T.);
#177=ORIENTED_EDGE('',*,*,#176,.F.);
#178=EDGE_LOOP('',(#177));
#179=FACE_OUTER_BOUND('',#178,.T.);
#180=ORIENTED_EDGE('',*,*,#141,.T.);
#181=ORIENTED_EDGE('',*,*,#148,.T.);
#182=EDGE_LOOP('',(#180,#181));
#183=FACE_BOUND('',#182,.T.);
#184=ADVANCED_FACE('',(#179,#183),#168,.F.);
#185=CARTESIAN_POINT('',(0.0,0.0,300.0));
#186=DIRECTION('',(0.0,0.0,1.0));
#187=DIRECTION('',(1.0,0.0,0.0));
#188=AXIS2_PLACEMENT_3D('',#185,#186,#187);
#189=PLANE('',#188);
#190=ORIENTED_EDGE('',*,*,#111,.F.);
#191=EDGE_LOOP('',(#190));
#192=FACE_OUTER_BOUND('',#191,.T.);
#193=ORIENTED_EDGE('',*,*,#128,.T.);
#194=EDGE_LOOP('',(#193));
#195=FACE_BOUND('',#194,.T.);
#196=ADVANCED_FACE('',(#192,#195),#189,.T.);
#197=CARTESIAN_POINT('',(0.0,176.776695296637000,23.223304703363201));
#198=DIRECTION('',(0.0,0.707106781186548,-0.707106781186547));
#199=DIRECTION('',(-1.0,0.0,0.0));
#200=AXIS2_PLACEMENT_3D('',#197,#198,#199);
#201=PLANE('',#200);
#202=CARTESIAN_POINT('',(80.0,176.776695296637000,23.223304703363201));
#203=VERTEX_POINT('',#202);
#204=CARTESIAN_POINT('',(0.0,176.776695296637000,23.223304703363201));
#205=DIRECTION('',(0.0,-0.707106781186548,0.707106781186547));
#206=DIRECTION('',(1.0,0.0,0.0));
#207=AXIS2_PLACEMENT_3D('',#204,#205,#206);
#208=CIRCLE('',#207,80.0);
#209=EDGE_CURVE('',#203,#203,#208,.T.);
#210=ORIENTED_EDGE('',*,*,#209,.F.);
#211=EDGE_LOOP('',(#210));
#212=FACE_OUTER_BOUND('',#211,.T.);
#213=ORIENTED_EDGE('',*,*,#176,.T.);
#214=EDGE_LOOP('',(#213));
#215=FACE_BOUND('',#214,.T.);
#216=ADVANCED_FACE('',(#212,#215),#201,.T.);
#217=CARTESIAN_POINT('',(0.0,141.421356237310020,58.578643762690504));
#218=DIRECTION('',(0.0,0.707106781186548,-0.707106781186547));
#219=DIRECTION('',(1.0,0.0,0.0));
#220=AXIS2_PLACEMENT_3D('',#217,#218,#219);
#221=CYLINDRICAL_SURFACE('',#220,75.0);
#222=CARTESIAN_POINT('',(0.0,122.683026535866010,-28.749043713848103));
#223=VERTEX_POINT('',#222);
#224=CARTESIAN_POINT('',(0.0,175.716035124857000,24.283964875143003));
#225=DIRECTION('',(0.0,-0.707106781186548,0.707106781186547));
#226=DIRECTION('',(0.0,-0.707106781186547,-0.707106781186548));
#227=AXIS2_PLACEMENT_3D('',#224,#225,#226);
#228=CIRCLE('',#227,75.000000000000014);
#229=EDGE_CURVE('',#223,#223,#228,.F.);
#230=ORIENTED_EDGE('',*,*,#229,.F.);
#231=EDGE_LOOP('',(#230));
#232=FACE_OUTER_BOUND('',#231,.T.);
#233=CARTESIAN_POINT('',(75.0,-1.387779E-014,200.0));
#234=VERTEX_POINT('',#233);
#235=CARTESIAN_POINT('',(-75.0,-1.190526E-015,200.0));
#236=VERTEX_POINT('',#235);
#237=CARTESIAN_POINT('',(0.0,-1.387779E-014,200.0));
#238=DIRECTION('',(0.0,-0.382683432365090,0.923879532511287));
#239=DIRECTION('',(0.0,-0.923879532511287,-0.382683432365090));
#240=AXIS2_PLACEMENT_3D('',#237,#238,#239);
#241=ELLIPSE('',#240,81.179415021929515,75.000000000000014);
#242=EDGE_CURVE('',#234,#236,#241,.T.);
#243=ORIENTED_EDGE('',*,*,#242,.F.);
#244=CARTESIAN_POINT('',(0.0,-1.387779E-014,200.0));
#245=DIRECTION('',(0.0,-0.923879532511287,-0.382683432365090));
#246=DIRECTION('',(0.0,-0.382683432365090,0.923879532511287));
#247=AXIS2_PLACEMENT_3D('',#244,#245,#246);
#248=ELLIPSE('',#247,195.984444731455990,75.0);
#249=EDGE_CURVE('',#236,#234,#248,.T.);
#250=ORIENTED_EDGE('',*,*,#249,.F.);
#251=EDGE_LOOP('',(#243,#250));
#252=FACE_BOUND('',#251,.T.);
#253=ADVANCED_FACE('',(#232,#252),#221,.T.);
#254=CARTESIAN_POINT('',(0.0,0.0,200.0));
#255=DIRECTION('',(0.0,0.0,-1.0));
#256=DIRECTION('',(1.0,0.0,0.0));
#257=AXIS2_PLACEMENT_3D('',#254,#255,#256);
#258=CYLINDRICAL_SURFACE('',#257,75.0);
#259=ORIENTED_EDGE('',*,*,#91,.T.);
#260=EDGE_LOOP('',(#259));
#261=FACE_OUTER_BOUND('',#260,.T.);
#262=CARTESIAN_POINT('',(75.0,0.0,-48.500000000000007));
#263=VERTEX_POINT('',#262);
#264=CARTESIAN_POINT('',(0.0,0.0,-48.500000000000007));
#265=DIRECTION('',(0.0,0.0,1.0));
#266=DIRECTION('',(1.0,0.0,0.0));
#267=AXIS2_PLACEMENT_3D('',#264,#265,#266);
#268=CIRCLE('',#267,75.0);
#269=EDGE_CURVE('',#263,#263,#268,.F.);
#270=ORIENTED_EDGE('',*,*,#269,.F.);
#271=EDGE_LOOP('',(#270));
#272=FACE_BOUND('',#271,.T.);
#273=ORIENTED_EDGE('',*,*,#249,.T.);
#274=ORIENTED_EDGE('',*,*,#242,.T.);
#275=EDGE_LOOP('',(#273,#274));
#276=FACE_BOUND('',#275,.T.);
#277=ADVANCED_FACE('',(#261,#272,#276),#258,.T.);
#278=CARTESIAN_POINT('',(0.0,0.0,-50.0));
#279=DIRECTION('',(0.0,0.0,-1.0));
#280=DIRECTION('',(-1.0,0.0,0.0));
#281=AXIS2_PLACEMENT_3D('',#278,#279,#280);
#282=PLANE('',#281);
#283=CARTESIAN_POINT('',(80.0,0.0,-50.0));
#284=VERTEX_POINT('',#283);
#285=CARTESIAN_POINT('',(0.0,0.0,-50.0));
#286=DIRECTION('',(0.0,0.0,1.0));
#287=DIRECTION('',(1.0,0.0,0.0));
#288=AXIS2_PLACEMENT_3D('',#285,#286,#287);
#289=CIRCLE('',#288,80.0);
#290=EDGE_CURVE('',#284,#284,#289,.T.);
#291=ORIENTED_EDGE('',*,*,#290,.F.);
#292=EDGE_LOOP('',(#291));
#293=FACE_OUTER_BOUND('',#292,.T.);
#294=ORIENTED_EDGE('',*,*,#159,.T.);
#295=EDGE_LOOP('',(#294));
#296=FACE_BOUND('',#295,.T.);
#297=ADVANCED_FACE('',(#293,#296),#282,.T.);
#298=CARTESIAN_POINT('',(0.0,0.0,-48.500000000000007));
#299=DIRECTION('',(0.0,0.0,1.0));
#300=DIRECTION('',(1.0,0.0,0.0));
#301=AXIS2_PLACEMENT_3D('',#298,#299,#300);
#302=PLANE('',#301);
#303=CARTESIAN_POINT('',(-80.0,0.0,-48.500000000000007));
#304=VERTEX_POINT('',#303);
#305=CARTESIAN_POINT('',(0.0,0.0,-48.500000000000007));
#306=DIRECTION('',(0.0,0.0,-1.0));
#307=DIRECTION('',(-1.0,0.0,0.0));
#308=AXIS2_PLACEMENT_3D('',#305,#306,#307);
#309=CIRCLE('',#308,80.0);
#310=EDGE_CURVE('',#304,#304,#309,.T.);
#311=ORIENTED_EDGE('',*,*,#310,.F.);
#312=EDGE_LOOP('',(#311));
#313=FACE_OUTER_BOUND('',#312,.T.);
#314=ORIENTED_EDGE('',*,*,#269,.T.);
#315=EDGE_LOOP('',(#314));
#316=FACE_BOUND('',#315,.T.);
#317=ADVANCED_FACE('',(#313,#316),#302,.T.);
#318=CARTESIAN_POINT('',(0.0,0.0,-50.0));
#319=DIRECTION('',(0.0,0.0,-1.0));
#320=DIRECTION('',(1.0,0.0,0.0));
#321=AXIS2_PLACEMENT_3D('',#318,#319,#320);
#322=CYLINDRICAL_SURFACE('',#321,80.0);
#323=ORIENTED_EDGE('',*,*,#310,.T.);
#324=EDGE_LOOP('',(#323));
#325=FACE_OUTER_BOUND('',#324,.T.);
#326=ORIENTED_EDGE('',*,*,#290,.T.);
#327=EDGE_LOOP('',(#326));
#328=FACE_BOUND('',#327,.T.);
#329=ADVANCED_FACE('',(#325,#328),#322,.T.);
#330=CARTESIAN_POINT('',(0.0,175.716035124857000,24.283964875143003));
#331=DIRECTION('',(0.0,-0.707106781186548,0.707106781186547));
#332=DIRECTION('',(1.0,0.0,0.0));
#333=AXIS2_PLACEMENT_3D('',#330,#331,#332);
#334=PLANE('',#333);
#335=CARTESIAN_POINT('',(-80.0,175.716035124857000,24.283964875143003));
#336=VERTEX_POINT('',#335);
#337=CARTESIAN_POINT('',(0.0,175.716035124857000,24.283964875143003));
#338=DIRECTION('',(0.0,0.707106781186548,-0.707106781186547));
#339=DIRECTION('',(-1.0,0.0,0.0));
#340=AXIS2_PLACEMENT_3D('',#337,#338,#339);
#341=CIRCLE('',#340,80.0);
#342=EDGE_CURVE('',#336,#336,#341,.T.);
#343=ORIENTED_EDGE('',*,*,#342,.F.);
#344=EDGE_LOOP('',(#343));
#345=FACE_OUTER_BOUND('',#344,.T.);
#346=ORIENTED_EDGE('',*,*,#229,.T.);
#347=EDGE_LOOP('',(#346));
#348=FACE_BOUND('',#347,.T.);
#349=ADVANCED_FACE('',(#345,#348),#334,.T.);
#350=CARTESIAN_POINT('',(0.0,176.776695296637000,23.223304703363201));
#351=DIRECTION('',(0.0,0.707106781186548,-0.707106781186547));
#352=DIRECTION('',(1.0,0.0,0.0));
#353=AXIS2_PLACEMENT_3D('',#350,#351,#352);
#354=CYLINDRICAL_SURFACE('',#353,80.0);
#355=ORIENTED_EDGE('',*,*,#342,.T.);
#356=EDGE_LOOP('',(#355));
#357=FACE_OUTER_BOUND('',#356,.T.);
#358=ORIENTED_EDGE('',*,*,#209,.T.);
#359=EDGE_LOOP('',(#358));
#360=FACE_BOUND('',#359,.T.);
#361=ADVANCED_FACE('',(#357,#360),#354,.T.);
#362=CLOSED_SHELL('',(#95,#115,#163,#184,#196,#216,#253,#277,#297,#317,#329,#349,#361));
#363=MANIFOLD_SOLID_BREP('',#362);
#364=COLOUR_RGB('Standard',0.752941012382507,0.752941012382507,0.752941012382507);
#365=FILL_AREA_STYLE_COLOUR('Standard',#364);
#366=FILL_AREA_STYLE('Standard',(#365));
#367=SURFACE_STYLE_FILL_AREA(#366);
#368=SURFACE_SIDE_STYLE('Standard',(#367));
#369=SURFACE_STYLE_USAGE(.BOTH.,#368);
#370=PRESENTATION_STYLE_ASSIGNMENT((#369));
#371=STYLED_ITEM('',(#370),#363);
#372=MECHANICAL_DESIGN_GEOMETRIC_PRESENTATION_REPRESENTATION('',(#371),#36);
#373=ADVANCED_BREP_SHAPE_REPRESENTATION('ABSR',(#363),#36);
#374=SHAPE_REPRESENTATION_RELATIONSHIP('SRR','None',#373,#41);
ENDSEC;
END-ISO-10303-21;
