ISO-10303-21;
HEADER;
/* Generated by software containing ST-Developer
 * from STEP Tools, Inc. (www.steptools.com) 
 */

FILE_DESCRIPTION(
/* description */ (''),
/* implementation_level */ '2;1');

FILE_NAME(
/* name */ 
'E:\\\X\DCberg\X\E4nge\\4010 023 015667 -Rohr\X\FCbergang NW 200 - NW 
150.stp',
/* time_stamp */ '2015-05-28T15:17:07+02:00',
/* author */ ('dpurucker'),
/* organization */ (''),
/* preprocessor_version */ 'ST-DEVELOPER v15.6',
/* originating_system */ 'Autodesk Inventor 2015',
/* authorisation */ '');

FILE_SCHEMA (('AUTOMOTIVE_DESIGN { 1 0 10303 214 3 1 1 }'));
ENDSEC;

DATA;
#10=MECHANICAL_DESIGN_GEOMETRIC_PRESENTATION_REPRESENTATION('',(#13),#263);
#11=SHAPE_REPRESENTATION_RELATIONSHIP('SRR','None',#272,#12);
#12=ADVANCED_BREP_SHAPE_REPRESENTATION($,(#14),#262);
#13=STYLED_ITEM('',(#281),#14);
#14=MANIFOLD_SOLID_BREP('Volumenk\X\F6rper1',#147);
#15=CYLINDRICAL_SURFACE('',#158,83.1086367643017);
#16=CYLINDRICAL_SURFACE('',#170,107.033367947097);
#17=PLANE('',#156);
#18=PLANE('',#160);
#19=PLANE('',#168);
#20=PLANE('',#172);
#21=CONICAL_SURFACE('',#152,87.2791409256658,15.0463918321985);
#22=CONICAL_SURFACE('',#164,89.2105728185324,15.0463918321985);
#23=FACE_BOUND('',#48,.T.);
#24=FACE_BOUND('',#50,.T.);
#25=FACE_BOUND('',#52,.T.);
#26=FACE_BOUND('',#54,.T.);
#27=FACE_BOUND('',#56,.T.);
#28=FACE_BOUND('',#58,.T.);
#29=FACE_BOUND('',#60,.T.);
#30=FACE_BOUND('',#62,.T.);
#31=FACE_BOUND('',#64,.T.);
#32=FACE_BOUND('',#66,.T.);
#33=FACE_BOUND('',#68,.T.);
#34=FACE_BOUND('',#70,.T.);
#35=FACE_OUTER_BOUND('',#47,.T.);
#36=FACE_OUTER_BOUND('',#49,.T.);
#37=FACE_OUTER_BOUND('',#51,.T.);
#38=FACE_OUTER_BOUND('',#53,.T.);
#39=FACE_OUTER_BOUND('',#55,.T.);
#40=FACE_OUTER_BOUND('',#57,.T.);
#41=FACE_OUTER_BOUND('',#59,.T.);
#42=FACE_OUTER_BOUND('',#61,.T.);
#43=FACE_OUTER_BOUND('',#63,.T.);
#44=FACE_OUTER_BOUND('',#65,.T.);
#45=FACE_OUTER_BOUND('',#67,.T.);
#46=FACE_OUTER_BOUND('',#69,.T.);
#47=EDGE_LOOP('',(#107));
#48=EDGE_LOOP('',(#108));
#49=EDGE_LOOP('',(#109));
#50=EDGE_LOOP('',(#110));
#51=EDGE_LOOP('',(#111));
#52=EDGE_LOOP('',(#112));
#53=EDGE_LOOP('',(#113));
#54=EDGE_LOOP('',(#114));
#55=EDGE_LOOP('',(#115));
#56=EDGE_LOOP('',(#116));
#57=EDGE_LOOP('',(#117));
#58=EDGE_LOOP('',(#118));
#59=EDGE_LOOP('',(#119));
#60=EDGE_LOOP('',(#120));
#61=EDGE_LOOP('',(#121));
#62=EDGE_LOOP('',(#122));
#63=EDGE_LOOP('',(#123));
#64=EDGE_LOOP('',(#124));
#65=EDGE_LOOP('',(#125));
#66=EDGE_LOOP('',(#126));
#67=EDGE_LOOP('',(#127));
#68=EDGE_LOOP('',(#128));
#69=EDGE_LOOP('',(#129));
#70=EDGE_LOOP('',(#130));
#71=CIRCLE('',#150,98.7038721084615);
#72=CIRCLE('',#151,102.566735894195);
#73=CIRCLE('',#153,75.8544097428701);
#74=CIRCLE('',#155,79.7172735286034);
#75=CIRCLE('',#157,83.1086367643017);
#76=CIRCLE('',#159,83.1086367643017);
#77=CIRCLE('',#161,79.7172735286033);
#78=CIRCLE('',#163,77.7858416357367);
#79=CIRCLE('',#165,100.635304001328);
#80=CIRCLE('',#167,102.566735894195);
#81=CIRCLE('',#169,107.033367947097);
#82=CIRCLE('',#171,107.033367947097);
#83=VERTEX_POINT('',#225);
#84=VERTEX_POINT('',#227);
#85=VERTEX_POINT('',#230);
#86=VERTEX_POINT('',#233);
#87=VERTEX_POINT('',#236);
#88=VERTEX_POINT('',#239);
#89=VERTEX_POINT('',#242);
#90=VERTEX_POINT('',#245);
#91=VERTEX_POINT('',#248);
#92=VERTEX_POINT('',#251);
#93=VERTEX_POINT('',#254);
#94=VERTEX_POINT('',#257);
#95=EDGE_CURVE('',#83,#83,#71,.T.);
#96=EDGE_CURVE('',#84,#84,#72,.T.);
#97=EDGE_CURVE('',#85,#85,#73,.T.);
#98=EDGE_CURVE('',#86,#86,#74,.T.);
#99=EDGE_CURVE('',#87,#87,#75,.T.);
#100=EDGE_CURVE('',#88,#88,#76,.T.);
#101=EDGE_CURVE('',#89,#89,#77,.T.);
#102=EDGE_CURVE('',#90,#90,#78,.T.);
#103=EDGE_CURVE('',#91,#91,#79,.T.);
#104=EDGE_CURVE('',#92,#92,#80,.T.);
#105=EDGE_CURVE('',#93,#93,#81,.T.);
#106=EDGE_CURVE('',#94,#94,#82,.T.);
#107=ORIENTED_EDGE('',*,*,#95,.F.);
#108=ORIENTED_EDGE('',*,*,#96,.T.);
#109=ORIENTED_EDGE('',*,*,#97,.F.);
#110=ORIENTED_EDGE('',*,*,#95,.T.);
#111=ORIENTED_EDGE('',*,*,#98,.F.);
#112=ORIENTED_EDGE('',*,*,#97,.T.);
#113=ORIENTED_EDGE('',*,*,#99,.F.);
#114=ORIENTED_EDGE('',*,*,#98,.T.);
#115=ORIENTED_EDGE('',*,*,#100,.F.);
#116=ORIENTED_EDGE('',*,*,#99,.T.);
#117=ORIENTED_EDGE('',*,*,#100,.T.);
#118=ORIENTED_EDGE('',*,*,#101,.F.);
#119=ORIENTED_EDGE('',*,*,#102,.F.);
#120=ORIENTED_EDGE('',*,*,#101,.T.);
#121=ORIENTED_EDGE('',*,*,#103,.F.);
#122=ORIENTED_EDGE('',*,*,#102,.T.);
#123=ORIENTED_EDGE('',*,*,#104,.F.);
#124=ORIENTED_EDGE('',*,*,#103,.T.);
#125=ORIENTED_EDGE('',*,*,#105,.F.);
#126=ORIENTED_EDGE('',*,*,#104,.T.);
#127=ORIENTED_EDGE('',*,*,#106,.F.);
#128=ORIENTED_EDGE('',*,*,#105,.T.);
#129=ORIENTED_EDGE('',*,*,#106,.T.);
#130=ORIENTED_EDGE('',*,*,#96,.F.);
#131=TOROIDAL_SURFACE('',#149,102.566735894195,4.);
#132=TOROIDAL_SURFACE('',#154,79.7172735286034,4.);
#133=TOROIDAL_SURFACE('',#162,79.7172735286034,2.);
#134=TOROIDAL_SURFACE('',#166,102.566735894195,2.);
#135=ADVANCED_FACE('',(#35,#23),#131,.T.);
#136=ADVANCED_FACE('',(#36,#24),#21,.F.);
#137=ADVANCED_FACE('',(#37,#25),#132,.T.);
#138=ADVANCED_FACE('',(#38,#26),#17,.T.);
#139=ADVANCED_FACE('',(#39,#27),#15,.T.);
#140=ADVANCED_FACE('',(#40,#28),#18,.T.);
#141=ADVANCED_FACE('',(#41,#29),#133,.F.);
#142=ADVANCED_FACE('',(#42,#30),#22,.T.);
#143=ADVANCED_FACE('',(#43,#31),#134,.F.);
#144=ADVANCED_FACE('',(#44,#32),#19,.T.);
#145=ADVANCED_FACE('',(#45,#33),#16,.T.);
#146=ADVANCED_FACE('',(#46,#34),#20,.T.);
#147=CLOSED_SHELL('',(#135,#136,#137,#138,#139,#140,#141,#142,#143,#144,
#145,#146));
#148=AXIS2_PLACEMENT_3D('placement',#223,#173,#174);
#149=AXIS2_PLACEMENT_3D('',#224,#175,#176);
#150=AXIS2_PLACEMENT_3D('',#226,#177,#178);
#151=AXIS2_PLACEMENT_3D('',#228,#179,#180);
#152=AXIS2_PLACEMENT_3D('',#229,#181,#182);
#153=AXIS2_PLACEMENT_3D('',#231,#183,#184);
#154=AXIS2_PLACEMENT_3D('',#232,#185,#186);
#155=AXIS2_PLACEMENT_3D('',#234,#187,#188);
#156=AXIS2_PLACEMENT_3D('',#235,#189,#190);
#157=AXIS2_PLACEMENT_3D('',#237,#191,#192);
#158=AXIS2_PLACEMENT_3D('',#238,#193,#194);
#159=AXIS2_PLACEMENT_3D('',#240,#195,#196);
#160=AXIS2_PLACEMENT_3D('',#241,#197,#198);
#161=AXIS2_PLACEMENT_3D('',#243,#199,#200);
#162=AXIS2_PLACEMENT_3D('',#244,#201,#202);
#163=AXIS2_PLACEMENT_3D('',#246,#203,#204);
#164=AXIS2_PLACEMENT_3D('',#247,#205,#206);
#165=AXIS2_PLACEMENT_3D('',#249,#207,#208);
#166=AXIS2_PLACEMENT_3D('',#250,#209,#210);
#167=AXIS2_PLACEMENT_3D('',#252,#211,#212);
#168=AXIS2_PLACEMENT_3D('',#253,#213,#214);
#169=AXIS2_PLACEMENT_3D('',#255,#215,#216);
#170=AXIS2_PLACEMENT_3D('',#256,#217,#218);
#171=AXIS2_PLACEMENT_3D('',#258,#219,#220);
#172=AXIS2_PLACEMENT_3D('',#259,#221,#222);
#173=DIRECTION('axis',(0.,0.,1.));
#174=DIRECTION('refdir',(1.,0.,0.));
#175=DIRECTION('center_axis',(0.,0.,-1.));
#176=DIRECTION('ref_axis',(-1.,0.,0.));
#177=DIRECTION('center_axis',(0.,0.,-1.));
#178=DIRECTION('ref_axis',(-1.,0.,0.));
#179=DIRECTION('center_axis',(0.,0.,-1.));
#180=DIRECTION('ref_axis',(-1.,0.,0.));
#181=DIRECTION('center_axis',(0.,0.,-1.));
#182=DIRECTION('ref_axis',(-1.,0.,0.));
#183=DIRECTION('center_axis',(0.,0.,-1.));
#184=DIRECTION('ref_axis',(-1.,0.,0.));
#185=DIRECTION('center_axis',(0.,0.,-1.));
#186=DIRECTION('ref_axis',(-1.,0.,0.));
#187=DIRECTION('center_axis',(0.,0.,-1.));
#188=DIRECTION('ref_axis',(-1.,0.,0.));
#189=DIRECTION('center_axis',(0.,0.,1.));
#190=DIRECTION('ref_axis',(1.,0.,0.));
#191=DIRECTION('center_axis',(0.,0.,-1.));
#192=DIRECTION('ref_axis',(-1.,0.,0.));
#193=DIRECTION('center_axis',(0.,0.,-1.));
#194=DIRECTION('ref_axis',(-1.,0.,0.));
#195=DIRECTION('center_axis',(0.,0.,-1.));
#196=DIRECTION('ref_axis',(-1.,0.,0.));
#197=DIRECTION('center_axis',(0.,0.,-1.));
#198=DIRECTION('ref_axis',(-1.,0.,0.));
#199=DIRECTION('center_axis',(0.,0.,-1.));
#200=DIRECTION('ref_axis',(-1.,0.,0.));
#201=DIRECTION('center_axis',(0.,0.,-1.));
#202=DIRECTION('ref_axis',(-1.,0.,0.));
#203=DIRECTION('center_axis',(0.,0.,-1.));
#204=DIRECTION('ref_axis',(-1.,0.,0.));
#205=DIRECTION('center_axis',(0.,0.,-1.));
#206=DIRECTION('ref_axis',(-1.,0.,0.));
#207=DIRECTION('center_axis',(0.,0.,-1.));
#208=DIRECTION('ref_axis',(-1.,0.,0.));
#209=DIRECTION('center_axis',(0.,0.,-1.));
#210=DIRECTION('ref_axis',(-1.,0.,0.));
#211=DIRECTION('center_axis',(0.,0.,-1.));
#212=DIRECTION('ref_axis',(-1.,0.,0.));
#213=DIRECTION('center_axis',(0.,0.,1.));
#214=DIRECTION('ref_axis',(1.,0.,0.));
#215=DIRECTION('center_axis',(0.,0.,-1.));
#216=DIRECTION('ref_axis',(-1.,0.,0.));
#217=DIRECTION('center_axis',(0.,0.,-1.));
#218=DIRECTION('ref_axis',(-1.,0.,0.));
#219=DIRECTION('center_axis',(0.,0.,-1.));
#220=DIRECTION('ref_axis',(-1.,0.,0.));
#221=DIRECTION('center_axis',(0.,0.,-1.));
#222=DIRECTION('ref_axis',(-1.,0.,0.));
#223=CARTESIAN_POINT('',(0.,0.,0.));
#224=CARTESIAN_POINT('Origin',(0.,0.,-42.5));
#225=CARTESIAN_POINT('',(-98.7038721084615,0.,-43.5384042434767));
#226=CARTESIAN_POINT('Origin',(0.,0.,-43.5384042434767));
#227=CARTESIAN_POINT('',(-102.566735894195,0.,-46.5));
#228=CARTESIAN_POINT('Origin',(0.,0.,-46.5));
#229=CARTESIAN_POINT('Origin',(0.,0.,-1.03840424347668));
#230=CARTESIAN_POINT('',(-75.8544097428701,0.,41.4615957565233));
#231=CARTESIAN_POINT('Origin',(0.,0.,41.4615957565233));
#232=CARTESIAN_POINT('Origin',(0.,0.,42.5));
#233=CARTESIAN_POINT('',(-79.7172735286034,0.,46.5));
#234=CARTESIAN_POINT('Origin',(0.,0.,46.5));
#235=CARTESIAN_POINT('Origin',(-81.4129551464525,0.,46.5));
#236=CARTESIAN_POINT('',(-83.1086367643017,0.,46.5));
#237=CARTESIAN_POINT('Origin',(0.,0.,46.5));
#238=CARTESIAN_POINT('Origin',(0.,0.,45.5));
#239=CARTESIAN_POINT('',(-83.1086367643017,0.,44.5));
#240=CARTESIAN_POINT('Origin',(0.,0.,44.5));
#241=CARTESIAN_POINT('Origin',(-81.4129551464525,0.,44.5));
#242=CARTESIAN_POINT('',(-79.7172735286033,0.,44.5));
#243=CARTESIAN_POINT('Origin',(0.,0.,44.5));
#244=CARTESIAN_POINT('Origin',(0.,0.,42.5));
#245=CARTESIAN_POINT('',(-77.7858416357367,0.,41.9807978782617));
#246=CARTESIAN_POINT('Origin',(0.,0.,41.9807978782617));
#247=CARTESIAN_POINT('Origin',(0.,0.,-0.51920212173834));
#248=CARTESIAN_POINT('',(-100.635304001328,0.,-43.0192021217383));
#249=CARTESIAN_POINT('Origin',(0.,0.,-43.0192021217383));
#250=CARTESIAN_POINT('Origin',(0.,0.,-42.5));
#251=CARTESIAN_POINT('',(-102.566735894195,0.,-44.5));
#252=CARTESIAN_POINT('Origin',(0.,0.,-44.5));
#253=CARTESIAN_POINT('Origin',(-104.800051920646,0.,-44.5));
#254=CARTESIAN_POINT('',(-107.033367947097,0.,-44.5));
#255=CARTESIAN_POINT('Origin',(0.,0.,-44.5));
#256=CARTESIAN_POINT('Origin',(0.,0.,-45.5));
#257=CARTESIAN_POINT('',(-107.033367947097,0.,-46.5));
#258=CARTESIAN_POINT('Origin',(0.,0.,-46.5));
#259=CARTESIAN_POINT('Origin',(-104.800051920646,0.,-46.5));
#260=UNCERTAINTY_MEASURE_WITH_UNIT(LENGTH_MEASURE(0.01),#264,
'DISTANCE_ACCURACY_VALUE',
'Maximum model space distance between geometric entities at asserted c
onnectivities');
#261=UNCERTAINTY_MEASURE_WITH_UNIT(LENGTH_MEASURE(1.E-6),#264,
'DISTANCE_ACCURACY_VALUE',
'Maximum model space distance between geometric entities at asserted c
onnectivities');
#262=(
GEOMETRIC_REPRESENTATION_CONTEXT(3)
GLOBAL_UNCERTAINTY_ASSIGNED_CONTEXT((#260))
GLOBAL_UNIT_ASSIGNED_CONTEXT((#264,#267,#265))
REPRESENTATION_CONTEXT('','3D')
);
#263=(
GEOMETRIC_REPRESENTATION_CONTEXT(3)
GLOBAL_UNCERTAINTY_ASSIGNED_CONTEXT((#261))
GLOBAL_UNIT_ASSIGNED_CONTEXT((#264,#267,#265))
REPRESENTATION_CONTEXT('','3D')
);
#264=(
LENGTH_UNIT()
NAMED_UNIT(*)
SI_UNIT(.MILLI.,.METRE.)
);
#265=(
NAMED_UNIT(*)
SI_UNIT($,.STERADIAN.)
SOLID_ANGLE_UNIT()
);
#266=DIMENSIONAL_EXPONENTS(0.,0.,0.,0.,0.,0.,0.);
#267=(
CONVERSION_BASED_UNIT('degree',#269)
NAMED_UNIT(#266)
PLANE_ANGLE_UNIT()
);
#268=(
NAMED_UNIT(*)
PLANE_ANGLE_UNIT()
SI_UNIT($,.RADIAN.)
);
#269=PLANE_ANGLE_MEASURE_WITH_UNIT(PLANE_ANGLE_MEASURE(0.01745329252),#268);
#270=SHAPE_DEFINITION_REPRESENTATION(#271,#272);
#271=PRODUCT_DEFINITION_SHAPE('',$,#274);
#272=SHAPE_REPRESENTATION('',(#148),#262);
#273=PRODUCT_DEFINITION_CONTEXT('part definition',#278,'design');
#274=PRODUCT_DEFINITION(
'4010 023 015667 -Rohr\X\FCbergang NW 200 - NW 150',
'4010 023 015667 -Rohr\X\FCbergang NW 200 - NW 150',#275,#273);
#275=PRODUCT_DEFINITION_FORMATION('',$,#280);
#276=PRODUCT_RELATED_PRODUCT_CATEGORY(
'4010 023 015667 -Rohr\X\FCbergang NW 200 - NW 150',
'4010 023 015667 -Rohr\X\FCbergang NW 200 - NW 150',(#280));
#277=APPLICATION_PROTOCOL_DEFINITION('international standard',
'automotive_design',2009,#278);
#278=APPLICATION_CONTEXT(
'Core Data for Automotive Mechanical Design Process');
#279=PRODUCT_CONTEXT('part definition',#278,'mechanical');
#280=PRODUCT('4010 023 015667 -Rohr\X\FCbergang NW 200 - NW 150',
'4010 023 015667 -Rohr\X\FCbergang NW 200 - NW 150',$,(#279));
#281=PRESENTATION_STYLE_ASSIGNMENT((#282));
#282=SURFACE_STYLE_USAGE(.BOTH.,#283);
#283=SURFACE_SIDE_STYLE($,(#284));
#284=SURFACE_STYLE_FILL_AREA(#285);
#285=FILL_AREA_STYLE($,(#286));
#286=FILL_AREA_STYLE_COLOUR($,#287);
#287=COLOUR_RGB('',0.87843137254902,0.874509803921569,0.858823529411765);
ENDSEC;
END-ISO-10303-21;
