ISO-10303-21;
HEADER;
/* Generated by software containing ST-Developer
 * from STEP Tools, Inc. (www.steptools.com) 
 */

FILE_DESCRIPTION(
/* description */ (''),
/* implementation_level */ '2;1');

FILE_NAME(
/* name */ 
'M:\\Oppl_Archiv\\CAD\\APS-Modelle\\Gabelst\X\FCcke\\4018008015668-Gab
elst\X\FCck APS_\X\D8304x3-1x45\X\B0.stp',
/* time_stamp */ '2015-01-08T08:00:22+01:00',
/* author */ ('Moppl'),
/* organization */ (''),
/* preprocessor_version */ 'ST-DEVELOPER v15.6',
/* originating_system */ 'Autodesk Inventor 2015',
/* authorisation */ '');

FILE_SCHEMA (('AUTOMOTIVE_DESIGN { 1 0 10303 214 3 1 1 }'));
ENDSEC;

DATA;
#10=MECHANICAL_DESIGN_GEOMETRIC_PRESENTATION_REPRESENTATION('',(#24,#23),
#524);
#11=ITEM_DEFINED_TRANSFORMATION($,$,#287,#336);
#12=ITEM_DEFINED_TRANSFORMATION($,$,#317,#337);
#13=(
REPRESENTATION_RELATIONSHIP($,$,#539,#541)
REPRESENTATION_RELATIONSHIP_WITH_TRANSFORMATION(#11)
SHAPE_REPRESENTATION_RELATIONSHIP()
);
#14=(
REPRESENTATION_RELATIONSHIP($,$,#540,#541)
REPRESENTATION_RELATIONSHIP_WITH_TRANSFORMATION(#12)
SHAPE_REPRESENTATION_RELATIONSHIP()
);
#15=CONTEXT_DEPENDENT_SHAPE_REPRESENTATION(#13,#537);
#16=CONTEXT_DEPENDENT_SHAPE_REPRESENTATION(#14,#538);
#17=NEXT_ASSEMBLY_USAGE_OCCURRENCE(
'4010008015682-Gabelst\X\FCck \X\D8304x3-1x45:1',
'4010008015682-Gabelst\X\FCck \X\D8304x3-1x45:1',
'4010008015682-Gabelst\X\FCck \X\D8304x3-1x45:1',#545,#543,
'4010008015682-Gabelst\X\FCck \X\D8304x3-1x45:1');
#18=NEXT_ASSEMBLY_USAGE_OCCURRENCE('4018008015668-Auskleidung:1',
'4018008015668-Auskleidung:1','4018008015668-Auskleidung:1',#545,#544,
'4018008015668-Auskleidung:1');
#19=SHAPE_REPRESENTATION_RELATIONSHIP('SRR','None',#539,#21);
#20=SHAPE_REPRESENTATION_RELATIONSHIP('SRR','None',#540,#22);
#21=ADVANCED_BREP_SHAPE_REPRESENTATION($,(#25),#521);
#22=ADVANCED_BREP_SHAPE_REPRESENTATION($,(#26),#522);
#23=STYLED_ITEM('',(#558),#25);
#24=STYLED_ITEM('',(#559),#26);
#25=MANIFOLD_SOLID_BREP('Volumenk\X\F6rper1',#285);
#26=MANIFOLD_SOLID_BREP('Volumenk\X\F6rper1',#286);
#27=PLANE('',#292);
#28=PLANE('',#297);
#29=PLANE('',#304);
#30=PLANE('',#309);
#31=PLANE('',#315);
#32=PLANE('',#316);
#33=PLANE('',#326);
#34=PLANE('',#333);
#35=PLANE('',#334);
#36=FACE_BOUND('',#89,.T.);
#37=FACE_BOUND('',#91,.T.);
#38=FACE_BOUND('',#93,.T.);
#39=FACE_BOUND('',#95,.T.);
#40=FACE_BOUND('',#97,.T.);
#41=FACE_BOUND('',#98,.T.);
#42=FACE_BOUND('',#100,.T.);
#43=FACE_BOUND('',#102,.T.);
#44=FACE_BOUND('',#104,.T.);
#45=FACE_BOUND('',#106,.T.);
#46=FACE_BOUND('',#108,.T.);
#47=FACE_BOUND('',#109,.T.);
#48=FACE_BOUND('',#111,.T.);
#49=FACE_BOUND('',#113,.T.);
#50=FACE_BOUND('',#115,.T.);
#51=FACE_BOUND('',#117,.T.);
#52=FACE_BOUND('',#119,.T.);
#53=FACE_BOUND('',#121,.T.);
#54=FACE_BOUND('',#123,.T.);
#55=FACE_BOUND('',#124,.T.);
#56=FACE_BOUND('',#126,.T.);
#57=FACE_BOUND('',#127,.T.);
#58=FACE_BOUND('',#129,.T.);
#59=FACE_BOUND('',#131,.T.);
#60=ELLIPSE('',#290,161.276437843567,149.);
#61=ELLIPSE('',#291,389.35576353316,149.);
#62=ELLIPSE('',#307,164.523614444444,152.);
#63=ELLIPSE('',#308,397.195141322418,152.);
#64=ELLIPSE('',#319,150.452515840643,139.);
#65=ELLIPSE('',#320,363.224504235633,139.);
#66=ELLIPSE('',#323,161.276437843567,149.);
#67=ELLIPSE('',#324,389.35576353316,149.);
#68=FACE_OUTER_BOUND('',#88,.T.);
#69=FACE_OUTER_BOUND('',#90,.T.);
#70=FACE_OUTER_BOUND('',#92,.T.);
#71=FACE_OUTER_BOUND('',#94,.T.);
#72=FACE_OUTER_BOUND('',#96,.T.);
#73=FACE_OUTER_BOUND('',#99,.T.);
#74=FACE_OUTER_BOUND('',#101,.T.);
#75=FACE_OUTER_BOUND('',#103,.T.);
#76=FACE_OUTER_BOUND('',#105,.T.);
#77=FACE_OUTER_BOUND('',#107,.T.);
#78=FACE_OUTER_BOUND('',#110,.T.);
#79=FACE_OUTER_BOUND('',#112,.T.);
#80=FACE_OUTER_BOUND('',#114,.T.);
#81=FACE_OUTER_BOUND('',#116,.T.);
#82=FACE_OUTER_BOUND('',#118,.T.);
#83=FACE_OUTER_BOUND('',#120,.T.);
#84=FACE_OUTER_BOUND('',#122,.T.);
#85=FACE_OUTER_BOUND('',#125,.T.);
#86=FACE_OUTER_BOUND('',#128,.T.);
#87=FACE_OUTER_BOUND('',#130,.T.);
#88=EDGE_LOOP('',(#202));
#89=EDGE_LOOP('',(#203,#204));
#90=EDGE_LOOP('',(#205));
#91=EDGE_LOOP('',(#206));
#92=EDGE_LOOP('',(#207));
#93=EDGE_LOOP('',(#208));
#94=EDGE_LOOP('',(#209));
#95=EDGE_LOOP('',(#210));
#96=EDGE_LOOP('',(#211));
#97=EDGE_LOOP('',(#212));
#98=EDGE_LOOP('',(#213,#214));
#99=EDGE_LOOP('',(#215));
#100=EDGE_LOOP('',(#216));
#101=EDGE_LOOP('',(#217));
#102=EDGE_LOOP('',(#218));
#103=EDGE_LOOP('',(#219));
#104=EDGE_LOOP('',(#220,#221));
#105=EDGE_LOOP('',(#222));
#106=EDGE_LOOP('',(#223));
#107=EDGE_LOOP('',(#224));
#108=EDGE_LOOP('',(#225));
#109=EDGE_LOOP('',(#226,#227));
#110=EDGE_LOOP('',(#228));
#111=EDGE_LOOP('',(#229));
#112=EDGE_LOOP('',(#230));
#113=EDGE_LOOP('',(#231));
#114=EDGE_LOOP('',(#232));
#115=EDGE_LOOP('',(#233));
#116=EDGE_LOOP('',(#234,#235));
#117=EDGE_LOOP('',(#236));
#118=EDGE_LOOP('',(#237,#238));
#119=EDGE_LOOP('',(#239));
#120=EDGE_LOOP('',(#240));
#121=EDGE_LOOP('',(#241));
#122=EDGE_LOOP('',(#242));
#123=EDGE_LOOP('',(#243));
#124=EDGE_LOOP('',(#244,#245));
#125=EDGE_LOOP('',(#246));
#126=EDGE_LOOP('',(#247,#248));
#127=EDGE_LOOP('',(#249));
#128=EDGE_LOOP('',(#250));
#129=EDGE_LOOP('',(#251));
#130=EDGE_LOOP('',(#252));
#131=EDGE_LOOP('',(#253));
#132=CIRCLE('',#289,149.);
#133=CIRCLE('',#293,158.5);
#134=CIRCLE('',#294,152.);
#135=CIRCLE('',#296,158.5);
#136=CIRCLE('',#298,149.);
#137=CIRCLE('',#300,149.);
#138=CIRCLE('',#302,158.5);
#139=CIRCLE('',#303,158.5);
#140=CIRCLE('',#305,152.);
#141=CIRCLE('',#311,152.);
#142=CIRCLE('',#313,158.5);
#143=CIRCLE('',#314,158.5);
#144=CIRCLE('',#321,139.);
#145=CIRCLE('',#325,149.);
#146=CIRCLE('',#328,149.);
#147=CIRCLE('',#329,149.);
#148=CIRCLE('',#331,139.);
#149=CIRCLE('',#332,139.);
#150=VERTEX_POINT('',#442);
#151=VERTEX_POINT('',#444);
#152=VERTEX_POINT('',#445);
#153=VERTEX_POINT('',#449);
#154=VERTEX_POINT('',#451);
#155=VERTEX_POINT('',#454);
#156=VERTEX_POINT('',#457);
#157=VERTEX_POINT('',#460);
#158=VERTEX_POINT('',#463);
#159=VERTEX_POINT('',#465);
#160=VERTEX_POINT('',#468);
#161=VERTEX_POINT('',#471);
#162=VERTEX_POINT('',#472);
#163=VERTEX_POINT('',#477);
#164=VERTEX_POINT('',#480);
#165=VERTEX_POINT('',#482);
#166=VERTEX_POINT('',#488);
#167=VERTEX_POINT('',#489);
#168=VERTEX_POINT('',#492);
#169=VERTEX_POINT('',#495);
#170=VERTEX_POINT('',#496);
#171=VERTEX_POINT('',#499);
#172=VERTEX_POINT('',#503);
#173=VERTEX_POINT('',#505);
#174=VERTEX_POINT('',#508);
#175=VERTEX_POINT('',#510);
#176=EDGE_CURVE('',#150,#150,#132,.T.);
#177=EDGE_CURVE('',#151,#152,#60,.T.);
#178=EDGE_CURVE('',#152,#151,#61,.T.);
#179=EDGE_CURVE('',#153,#153,#133,.T.);
#180=EDGE_CURVE('',#154,#154,#134,.T.);
#181=EDGE_CURVE('',#155,#155,#135,.T.);
#182=EDGE_CURVE('',#156,#156,#136,.T.);
#183=EDGE_CURVE('',#157,#157,#137,.T.);
#184=EDGE_CURVE('',#158,#158,#138,.T.);
#185=EDGE_CURVE('',#159,#159,#139,.T.);
#186=EDGE_CURVE('',#160,#160,#140,.T.);
#187=EDGE_CURVE('',#161,#162,#62,.T.);
#188=EDGE_CURVE('',#162,#161,#63,.T.);
#189=EDGE_CURVE('',#163,#163,#141,.T.);
#190=EDGE_CURVE('',#164,#164,#142,.T.);
#191=EDGE_CURVE('',#165,#165,#143,.T.);
#192=EDGE_CURVE('',#166,#167,#64,.T.);
#193=EDGE_CURVE('',#167,#166,#65,.T.);
#194=EDGE_CURVE('',#168,#168,#144,.T.);
#195=EDGE_CURVE('',#169,#170,#66,.T.);
#196=EDGE_CURVE('',#170,#169,#67,.T.);
#197=EDGE_CURVE('',#171,#171,#145,.T.);
#198=EDGE_CURVE('',#172,#172,#146,.T.);
#199=EDGE_CURVE('',#173,#173,#147,.T.);
#200=EDGE_CURVE('',#174,#174,#148,.T.);
#201=EDGE_CURVE('',#175,#175,#149,.T.);
#202=ORIENTED_EDGE('',*,*,#176,.F.);
#203=ORIENTED_EDGE('',*,*,#177,.F.);
#204=ORIENTED_EDGE('',*,*,#178,.F.);
#205=ORIENTED_EDGE('',*,*,#179,.F.);
#206=ORIENTED_EDGE('',*,*,#180,.F.);
#207=ORIENTED_EDGE('',*,*,#179,.T.);
#208=ORIENTED_EDGE('',*,*,#181,.T.);
#209=ORIENTED_EDGE('',*,*,#181,.F.);
#210=ORIENTED_EDGE('',*,*,#182,.T.);
#211=ORIENTED_EDGE('',*,*,#182,.F.);
#212=ORIENTED_EDGE('',*,*,#183,.F.);
#213=ORIENTED_EDGE('',*,*,#178,.T.);
#214=ORIENTED_EDGE('',*,*,#177,.T.);
#215=ORIENTED_EDGE('',*,*,#184,.T.);
#216=ORIENTED_EDGE('',*,*,#185,.T.);
#217=ORIENTED_EDGE('',*,*,#184,.F.);
#218=ORIENTED_EDGE('',*,*,#186,.F.);
#219=ORIENTED_EDGE('',*,*,#186,.T.);
#220=ORIENTED_EDGE('',*,*,#187,.F.);
#221=ORIENTED_EDGE('',*,*,#188,.F.);
#222=ORIENTED_EDGE('',*,*,#185,.F.);
#223=ORIENTED_EDGE('',*,*,#176,.T.);
#224=ORIENTED_EDGE('',*,*,#180,.T.);
#225=ORIENTED_EDGE('',*,*,#189,.T.);
#226=ORIENTED_EDGE('',*,*,#187,.T.);
#227=ORIENTED_EDGE('',*,*,#188,.T.);
#228=ORIENTED_EDGE('',*,*,#190,.T.);
#229=ORIENTED_EDGE('',*,*,#191,.T.);
#230=ORIENTED_EDGE('',*,*,#190,.F.);
#231=ORIENTED_EDGE('',*,*,#189,.F.);
#232=ORIENTED_EDGE('',*,*,#191,.F.);
#233=ORIENTED_EDGE('',*,*,#183,.T.);
#234=ORIENTED_EDGE('',*,*,#192,.F.);
#235=ORIENTED_EDGE('',*,*,#193,.F.);
#236=ORIENTED_EDGE('',*,*,#194,.F.);
#237=ORIENTED_EDGE('',*,*,#195,.F.);
#238=ORIENTED_EDGE('',*,*,#196,.F.);
#239=ORIENTED_EDGE('',*,*,#197,.T.);
#240=ORIENTED_EDGE('',*,*,#197,.F.);
#241=ORIENTED_EDGE('',*,*,#194,.T.);
#242=ORIENTED_EDGE('',*,*,#198,.T.);
#243=ORIENTED_EDGE('',*,*,#199,.T.);
#244=ORIENTED_EDGE('',*,*,#195,.T.);
#245=ORIENTED_EDGE('',*,*,#196,.T.);
#246=ORIENTED_EDGE('',*,*,#200,.T.);
#247=ORIENTED_EDGE('',*,*,#192,.T.);
#248=ORIENTED_EDGE('',*,*,#193,.T.);
#249=ORIENTED_EDGE('',*,*,#201,.F.);
#250=ORIENTED_EDGE('',*,*,#198,.F.);
#251=ORIENTED_EDGE('',*,*,#201,.T.);
#252=ORIENTED_EDGE('',*,*,#199,.F.);
#253=ORIENTED_EDGE('',*,*,#200,.F.);
#254=CYLINDRICAL_SURFACE('',#288,149.);
#255=CYLINDRICAL_SURFACE('',#295,158.5);
#256=CYLINDRICAL_SURFACE('',#299,149.);
#257=CYLINDRICAL_SURFACE('',#301,158.5);
#258=CYLINDRICAL_SURFACE('',#306,152.);
#259=CYLINDRICAL_SURFACE('',#310,152.);
#260=CYLINDRICAL_SURFACE('',#312,158.5);
#261=CYLINDRICAL_SURFACE('',#318,139.);
#262=CYLINDRICAL_SURFACE('',#322,149.);
#263=CYLINDRICAL_SURFACE('',#327,149.);
#264=CYLINDRICAL_SURFACE('',#330,139.);
#265=ADVANCED_FACE('',(#68,#36),#254,.F.);
#266=ADVANCED_FACE('',(#69,#37),#27,.T.);
#267=ADVANCED_FACE('',(#70,#38),#255,.T.);
#268=ADVANCED_FACE('',(#71,#39),#28,.F.);
#269=ADVANCED_FACE('',(#72,#40,#41),#256,.F.);
#270=ADVANCED_FACE('',(#73,#42),#257,.T.);
#271=ADVANCED_FACE('',(#74,#43),#29,.T.);
#272=ADVANCED_FACE('',(#75,#44),#258,.T.);
#273=ADVANCED_FACE('',(#76,#45),#30,.T.);
#274=ADVANCED_FACE('',(#77,#46,#47),#259,.T.);
#275=ADVANCED_FACE('',(#78,#48),#260,.T.);
#276=ADVANCED_FACE('',(#79,#49),#31,.T.);
#277=ADVANCED_FACE('',(#80,#50),#32,.T.);
#278=ADVANCED_FACE('',(#81,#51),#261,.F.);
#279=ADVANCED_FACE('',(#82,#52),#262,.T.);
#280=ADVANCED_FACE('',(#83,#53),#33,.F.);
#281=ADVANCED_FACE('',(#84,#54,#55),#263,.T.);
#282=ADVANCED_FACE('',(#85,#56,#57),#264,.F.);
#283=ADVANCED_FACE('',(#86,#58),#34,.T.);
#284=ADVANCED_FACE('',(#87,#59),#35,.T.);
#285=CLOSED_SHELL('',(#265,#266,#267,#268,#269,#270,#271,#272,#273,#274,
#275,#276,#277));
#286=CLOSED_SHELL('',(#278,#279,#280,#281,#282,#283,#284));
#287=AXIS2_PLACEMENT_3D('placement',#440,#338,#339);
#288=AXIS2_PLACEMENT_3D('',#441,#340,#341);
#289=AXIS2_PLACEMENT_3D('',#443,#342,#343);
#290=AXIS2_PLACEMENT_3D('',#446,#344,#345);
#291=AXIS2_PLACEMENT_3D('',#447,#346,#347);
#292=AXIS2_PLACEMENT_3D('',#448,#348,#349);
#293=AXIS2_PLACEMENT_3D('',#450,#350,#351);
#294=AXIS2_PLACEMENT_3D('',#452,#352,#353);
#295=AXIS2_PLACEMENT_3D('',#453,#354,#355);
#296=AXIS2_PLACEMENT_3D('',#455,#356,#357);
#297=AXIS2_PLACEMENT_3D('',#456,#358,#359);
#298=AXIS2_PLACEMENT_3D('',#458,#360,#361);
#299=AXIS2_PLACEMENT_3D('',#459,#362,#363);
#300=AXIS2_PLACEMENT_3D('',#461,#364,#365);
#301=AXIS2_PLACEMENT_3D('',#462,#366,#367);
#302=AXIS2_PLACEMENT_3D('',#464,#368,#369);
#303=AXIS2_PLACEMENT_3D('',#466,#370,#371);
#304=AXIS2_PLACEMENT_3D('',#467,#372,#373);
#305=AXIS2_PLACEMENT_3D('',#469,#374,#375);
#306=AXIS2_PLACEMENT_3D('',#470,#376,#377);
#307=AXIS2_PLACEMENT_3D('',#473,#378,#379);
#308=AXIS2_PLACEMENT_3D('',#474,#380,#381);
#309=AXIS2_PLACEMENT_3D('',#475,#382,#383);
#310=AXIS2_PLACEMENT_3D('',#476,#384,#385);
#311=AXIS2_PLACEMENT_3D('',#478,#386,#387);
#312=AXIS2_PLACEMENT_3D('',#479,#388,#389);
#313=AXIS2_PLACEMENT_3D('',#481,#390,#391);
#314=AXIS2_PLACEMENT_3D('',#483,#392,#393);
#315=AXIS2_PLACEMENT_3D('',#484,#394,#395);
#316=AXIS2_PLACEMENT_3D('',#485,#396,#397);
#317=AXIS2_PLACEMENT_3D('placement',#486,#398,#399);
#318=AXIS2_PLACEMENT_3D('',#487,#400,#401);
#319=AXIS2_PLACEMENT_3D('',#490,#402,#403);
#320=AXIS2_PLACEMENT_3D('',#491,#404,#405);
#321=AXIS2_PLACEMENT_3D('',#493,#406,#407);
#322=AXIS2_PLACEMENT_3D('',#494,#408,#409);
#323=AXIS2_PLACEMENT_3D('',#497,#410,#411);
#324=AXIS2_PLACEMENT_3D('',#498,#412,#413);
#325=AXIS2_PLACEMENT_3D('',#500,#414,#415);
#326=AXIS2_PLACEMENT_3D('',#501,#416,#417);
#327=AXIS2_PLACEMENT_3D('',#502,#418,#419);
#328=AXIS2_PLACEMENT_3D('',#504,#420,#421);
#329=AXIS2_PLACEMENT_3D('',#506,#422,#423);
#330=AXIS2_PLACEMENT_3D('',#507,#424,#425);
#331=AXIS2_PLACEMENT_3D('',#509,#426,#427);
#332=AXIS2_PLACEMENT_3D('',#511,#428,#429);
#333=AXIS2_PLACEMENT_3D('',#512,#430,#431);
#334=AXIS2_PLACEMENT_3D('',#513,#432,#433);
#335=AXIS2_PLACEMENT_3D('placement',#514,#434,#435);
#336=AXIS2_PLACEMENT_3D('',#515,#436,#437);
#337=AXIS2_PLACEMENT_3D('',#516,#438,#439);
#338=DIRECTION('axis',(0.,0.,1.));
#339=DIRECTION('refdir',(1.,0.,0.));
#340=DIRECTION('center_axis',(-0.707106781186548,0.,-0.707106781186547));
#341=DIRECTION('ref_axis',(0.,1.,0.));
#342=DIRECTION('center_axis',(-0.707106781186548,0.,-0.707106781186548));
#343=DIRECTION('ref_axis',(0.,1.,0.));
#344=DIRECTION('center_axis',(0.38268343236509,0.,0.923879532511287));
#345=DIRECTION('ref_axis',(0.923879532511287,0.,-0.38268343236509));
#346=DIRECTION('center_axis',(0.923879532511287,0.,-0.38268343236509));
#347=DIRECTION('ref_axis',(-0.38268343236509,0.,-0.923879532511287));
#348=DIRECTION('center_axis',(0.,0.,1.));
#349=DIRECTION('ref_axis',(1.,0.,0.));
#350=DIRECTION('center_axis',(0.,0.,-1.));
#351=DIRECTION('ref_axis',(1.,0.,0.));
#352=DIRECTION('center_axis',(0.,0.,1.));
#353=DIRECTION('ref_axis',(-1.,0.,0.));
#354=DIRECTION('center_axis',(0.,0.,1.));
#355=DIRECTION('ref_axis',(1.,0.,0.));
#356=DIRECTION('center_axis',(0.,0.,1.));
#357=DIRECTION('ref_axis',(1.,0.,0.));
#358=DIRECTION('center_axis',(0.,0.,1.));
#359=DIRECTION('ref_axis',(1.,0.,0.));
#360=DIRECTION('center_axis',(0.,0.,1.));
#361=DIRECTION('ref_axis',(-1.,0.,0.));
#362=DIRECTION('center_axis',(0.,0.,1.));
#363=DIRECTION('ref_axis',(-1.,0.,0.));
#364=DIRECTION('center_axis',(0.,0.,-1.));
#365=DIRECTION('ref_axis',(-1.,0.,0.));
#366=DIRECTION('center_axis',(-0.707106781186553,0.,-0.707106781186542));
#367=DIRECTION('ref_axis',(-0.707106781186542,0.,0.707106781186553));
#368=DIRECTION('center_axis',(0.707106781186548,0.,0.707106781186548));
#369=DIRECTION('ref_axis',(-0.707106781186548,0.,0.707106781186548));
#370=DIRECTION('center_axis',(-0.707106781186548,0.,-0.707106781186548));
#371=DIRECTION('ref_axis',(-0.707106781186548,0.,0.707106781186548));
#372=DIRECTION('center_axis',(-0.707106781186548,0.,-0.707106781186548));
#373=DIRECTION('ref_axis',(-0.707106781186548,0.,0.707106781186548));
#374=DIRECTION('center_axis',(-0.707106781186548,0.,-0.707106781186548));
#375=DIRECTION('ref_axis',(0.,1.,0.));
#376=DIRECTION('center_axis',(-0.707106781186548,0.,-0.707106781186547));
#377=DIRECTION('ref_axis',(0.,1.,0.));
#378=DIRECTION('center_axis',(-0.38268343236509,0.,-0.923879532511287));
#379=DIRECTION('ref_axis',(0.923879532511287,0.,-0.38268343236509));
#380=DIRECTION('center_axis',(-0.923879532511287,0.,0.38268343236509));
#381=DIRECTION('ref_axis',(-0.38268343236509,0.,-0.923879532511287));
#382=DIRECTION('center_axis',(0.707106781186548,0.,0.707106781186548));
#383=DIRECTION('ref_axis',(0.707106781186548,0.,-0.707106781186548));
#384=DIRECTION('center_axis',(0.,0.,1.));
#385=DIRECTION('ref_axis',(-1.,0.,0.));
#386=DIRECTION('center_axis',(0.,0.,-1.));
#387=DIRECTION('ref_axis',(-1.,0.,0.));
#388=DIRECTION('center_axis',(0.,0.,-1.));
#389=DIRECTION('ref_axis',(-1.,0.,0.));
#390=DIRECTION('center_axis',(0.,0.,1.));
#391=DIRECTION('ref_axis',(-1.,0.,0.));
#392=DIRECTION('center_axis',(0.,0.,-1.));
#393=DIRECTION('ref_axis',(-1.,0.,0.));
#394=DIRECTION('center_axis',(0.,0.,-1.));
#395=DIRECTION('ref_axis',(-1.,0.,0.));
#396=DIRECTION('center_axis',(0.,0.,1.));
#397=DIRECTION('ref_axis',(1.,0.,0.));
#398=DIRECTION('axis',(0.,0.,1.));
#399=DIRECTION('refdir',(1.,0.,0.));
#400=DIRECTION('center_axis',(0.707106781186548,0.,0.707106781186548));
#401=DIRECTION('ref_axis',(0.,-1.,0.));
#402=DIRECTION('center_axis',(-0.38268343236509,0.,-0.923879532511287));
#403=DIRECTION('ref_axis',(0.923879532511287,3.00424185609825E-17,-0.382683432365089));
#404=DIRECTION('center_axis',(-0.923879532511287,0.,0.38268343236509));
#405=DIRECTION('ref_axis',(-0.38268343236509,-7.25288143364131E-17,-0.923879532511287));
#406=DIRECTION('center_axis',(0.707106781186547,7.85046229341887E-17,0.707106781186548));
#407=DIRECTION('ref_axis',(0.,-1.,0.));
#408=DIRECTION('center_axis',(0.707106781186548,0.,0.707106781186548));
#409=DIRECTION('ref_axis',(0.,-1.,0.));
#410=DIRECTION('center_axis',(0.382683432365089,0.,0.923879532511287));
#411=DIRECTION('ref_axis',(0.923879532511287,0.,-0.382683432365089));
#412=DIRECTION('center_axis',(0.923879532511287,0.,-0.38268343236509));
#413=DIRECTION('ref_axis',(-0.38268343236509,0.,-0.923879532511287));
#414=DIRECTION('center_axis',(0.707106781186548,0.,0.707106781186548));
#415=DIRECTION('ref_axis',(0.,-1.,0.));
#416=DIRECTION('center_axis',(0.707106781186547,7.85046229341887E-17,0.707106781186548));
#417=DIRECTION('ref_axis',(0.707106781186548,0.,-0.707106781186548));
#418=DIRECTION('center_axis',(0.,0.,-1.));
#419=DIRECTION('ref_axis',(-1.,0.,0.));
#420=DIRECTION('center_axis',(0.,0.,-1.));
#421=DIRECTION('ref_axis',(-1.,0.,0.));
#422=DIRECTION('center_axis',(0.,0.,1.));
#423=DIRECTION('ref_axis',(-1.,0.,0.));
#424=DIRECTION('center_axis',(0.,0.,-1.));
#425=DIRECTION('ref_axis',(-1.,0.,0.));
#426=DIRECTION('center_axis',(0.,0.,-1.));
#427=DIRECTION('ref_axis',(-1.,0.,0.));
#428=DIRECTION('center_axis',(0.,0.,-1.));
#429=DIRECTION('ref_axis',(-1.,0.,0.));
#430=DIRECTION('center_axis',(0.,0.,1.));
#431=DIRECTION('ref_axis',(1.,0.,0.));
#432=DIRECTION('center_axis',(0.,0.,-1.));
#433=DIRECTION('ref_axis',(-1.,0.,0.));
#434=DIRECTION('axis',(0.,0.,1.));
#435=DIRECTION('refdir',(1.,0.,0.));
#436=DIRECTION('',(0.,0.,1.));
#437=DIRECTION('',(1.,0.,0.));
#438=DIRECTION('',(0.,0.,-1.));
#439=DIRECTION('',(-1.,0.,0.));
#440=CARTESIAN_POINT('',(0.,0.,0.));
#441=CARTESIAN_POINT('Origin',(291.327993848858,0.,392.327993848858));
#442=CARTESIAN_POINT('',(291.327993848858,-149.,392.327993848858));
#443=CARTESIAN_POINT('Origin',(291.327993848857,0.,392.327993848858));
#444=CARTESIAN_POINT('',(0.,-149.,101.));
#445=CARTESIAN_POINT('',(0.,149.,101.));
#446=CARTESIAN_POINT('Origin',(3.5527136788005E-14,0.,101.));
#447=CARTESIAN_POINT('Origin',(-7.105427357601E-14,0.,101.));
#448=CARTESIAN_POINT('Origin',(0.,0.,3.));
#449=CARTESIAN_POINT('',(-158.5,1.94106517664856E-14,3.));
#450=CARTESIAN_POINT('Origin',(0.,0.,3.));
#451=CARTESIAN_POINT('',(-152.,1.86146313470398E-14,3.));
#452=CARTESIAN_POINT('Origin',(0.,0.,3.));
#453=CARTESIAN_POINT('Origin',(0.,0.,0.));
#454=CARTESIAN_POINT('',(-158.5,1.94106517664856E-14,0.));
#455=CARTESIAN_POINT('Origin',(0.,0.,0.));
#456=CARTESIAN_POINT('Origin',(-7.78405029435945E-15,3.11641550771974E-15,
0.));
#457=CARTESIAN_POINT('',(149.,1.82472373072956E-14,0.));
#458=CARTESIAN_POINT('Origin',(0.,0.,0.));
#459=CARTESIAN_POINT('Origin',(0.,0.,0.));
#460=CARTESIAN_POINT('',(149.,1.82472373072956E-14,520.));
#461=CARTESIAN_POINT('Origin',(0.,0.,520.));
#462=CARTESIAN_POINT('Origin',(291.327993848857,0.,392.327993848857));
#463=CARTESIAN_POINT('',(401.283098323366,1.94106517664856E-14,278.13024868723));
#464=CARTESIAN_POINT('Origin',(289.206673505298,0.,390.206673505298));
#465=CARTESIAN_POINT('',(403.404418666925,1.94106517664856E-14,280.25156903079));
#466=CARTESIAN_POINT('Origin',(291.327993848857,0.,392.327993848857));
#467=CARTESIAN_POINT('Origin',(289.206673505298,0.,390.206673505298));
#468=CARTESIAN_POINT('',(396.686904245653,1.86146313470398E-14,282.726442764943));
#469=CARTESIAN_POINT('Origin',(289.206673505298,0.,390.206673505298));
#470=CARTESIAN_POINT('Origin',(291.327993848858,0.,392.327993848858));
#471=CARTESIAN_POINT('',(0.,152.,101.));
#472=CARTESIAN_POINT('',(0.,-152.,101.));
#473=CARTESIAN_POINT('Origin',(0.,0.,101.));
#474=CARTESIAN_POINT('Origin',(-7.105427357601E-14,0.,101.));
#475=CARTESIAN_POINT('Origin',(291.327993848857,7.78405029435945E-15,392.327993848858));
#476=CARTESIAN_POINT('Origin',(0.,0.,0.));
#477=CARTESIAN_POINT('',(152.,1.86146313470398E-14,517.));
#478=CARTESIAN_POINT('Origin',(0.,0.,517.));
#479=CARTESIAN_POINT('Origin',(0.,0.,520.));
#480=CARTESIAN_POINT('',(158.5,1.94106517664856E-14,517.));
#481=CARTESIAN_POINT('Origin',(0.,0.,517.));
#482=CARTESIAN_POINT('',(158.5,1.94106517664856E-14,520.));
#483=CARTESIAN_POINT('Origin',(0.,0.,520.));
#484=CARTESIAN_POINT('Origin',(0.,0.,517.));
#485=CARTESIAN_POINT('Origin',(-7.78405029435945E-15,3.11641550771974E-15,
520.));
#486=CARTESIAN_POINT('',(0.,0.,0.));
#487=CARTESIAN_POINT('Origin',(-291.327993848857,-3.11641550771974E-15,
-392.327993848858));
#488=CARTESIAN_POINT('',(0.,-139.,-101.));
#489=CARTESIAN_POINT('',(0.,139.,-101.));
#490=CARTESIAN_POINT('Origin',(0.,2.9227489141166E-14,-101.));
#491=CARTESIAN_POINT('Origin',(0.,2.9227489141166E-14,-101.));
#492=CARTESIAN_POINT('',(-291.327993848857,139.,-392.327993848858));
#493=CARTESIAN_POINT('Origin',(-291.327993848857,-3.11641550771974E-15,
-392.327993848857));
#494=CARTESIAN_POINT('Origin',(-291.327993848857,-3.11641550771974E-15,
-392.327993848858));
#495=CARTESIAN_POINT('',(-3.5527136788005E-14,149.,-101.));
#496=CARTESIAN_POINT('',(-3.5527136788005E-14,-149.,-101.));
#497=CARTESIAN_POINT('Origin',(-3.5527136788005E-14,-3.11641550771974E-15,
-101.));
#498=CARTESIAN_POINT('Origin',(0.,-3.11641550771974E-15,-101.));
#499=CARTESIAN_POINT('',(-291.327993848857,149.,-392.327993848858));
#500=CARTESIAN_POINT('Origin',(-291.327993848857,-3.11641550771974E-15,
-392.327993848858));
#501=CARTESIAN_POINT('Origin',(-291.327993848857,-8.39832995092233E-15,
-392.327993848857));
#502=CARTESIAN_POINT('Origin',(-7.78405029435945E-15,-3.11641550771974E-15,
0.));
#503=CARTESIAN_POINT('',(149.,1.51308217995758E-14,0.));
#504=CARTESIAN_POINT('Origin',(-7.78405029435945E-15,-3.11641550771974E-15,
0.));
#505=CARTESIAN_POINT('',(149.,1.51308217995758E-14,-520.));
#506=CARTESIAN_POINT('Origin',(-7.78405029435945E-15,-3.11641550771974E-15,
-520.));
#507=CARTESIAN_POINT('Origin',(-7.78405029435945E-15,-3.11641550771974E-15,
0.));
#508=CARTESIAN_POINT('',(139.,-2.01390060158679E-14,-520.));
#509=CARTESIAN_POINT('Origin',(-7.78405029435945E-15,-3.11641550771974E-15,
-520.));
#510=CARTESIAN_POINT('',(139.,1.39061750004285E-14,0.));
#511=CARTESIAN_POINT('Origin',(-7.78405029435945E-15,-3.11641550771974E-15,
0.));
#512=CARTESIAN_POINT('Origin',(-9.17626908202895E-15,-3.69856471330049E-15,
0.));
#513=CARTESIAN_POINT('Origin',(0.,0.,-520.));
#514=CARTESIAN_POINT('',(0.,0.,0.));
#515=CARTESIAN_POINT('',(0.,0.,0.));
#516=CARTESIAN_POINT('',(-7.78405029435945E-16,3.11641550771974E-16,0.));
#517=UNCERTAINTY_MEASURE_WITH_UNIT(LENGTH_MEASURE(0.01),#525,
'DISTANCE_ACCURACY_VALUE',
'Maximum model space distance between geometric entities at asserted c
onnectivities');
#518=UNCERTAINTY_MEASURE_WITH_UNIT(LENGTH_MEASURE(0.01),#525,
'DISTANCE_ACCURACY_VALUE',
'Maximum model space distance between geometric entities at asserted c
onnectivities');
#519=UNCERTAINTY_MEASURE_WITH_UNIT(LENGTH_MEASURE(0.01),#525,
'DISTANCE_ACCURACY_VALUE',
'Maximum model space distance between geometric entities at asserted c
onnectivities');
#520=UNCERTAINTY_MEASURE_WITH_UNIT(LENGTH_MEASURE(1.E-6),#525,
'DISTANCE_ACCURACY_VALUE',
'Maximum model space distance between geometric entities at asserted c
onnectivities');
#521=(
GEOMETRIC_REPRESENTATION_CONTEXT(3)
GLOBAL_UNCERTAINTY_ASSIGNED_CONTEXT((#517))
GLOBAL_UNIT_ASSIGNED_CONTEXT((#525,#528,#526))
REPRESENTATION_CONTEXT('','3D')
);
#522=(
GEOMETRIC_REPRESENTATION_CONTEXT(3)
GLOBAL_UNCERTAINTY_ASSIGNED_CONTEXT((#518))
GLOBAL_UNIT_ASSIGNED_CONTEXT((#525,#528,#526))
REPRESENTATION_CONTEXT('','3D')
);
#523=(
GEOMETRIC_REPRESENTATION_CONTEXT(3)
GLOBAL_UNCERTAINTY_ASSIGNED_CONTEXT((#519))
GLOBAL_UNIT_ASSIGNED_CONTEXT((#525,#528,#526))
REPRESENTATION_CONTEXT('','3D')
);
#524=(
GEOMETRIC_REPRESENTATION_CONTEXT(3)
GLOBAL_UNCERTAINTY_ASSIGNED_CONTEXT((#520))
GLOBAL_UNIT_ASSIGNED_CONTEXT((#525,#528,#526))
REPRESENTATION_CONTEXT('','3D')
);
#525=(
LENGTH_UNIT()
NAMED_UNIT(*)
SI_UNIT(.MILLI.,.METRE.)
);
#526=(
NAMED_UNIT(*)
SI_UNIT($,.STERADIAN.)
SOLID_ANGLE_UNIT()
);
#527=DIMENSIONAL_EXPONENTS(0.,0.,0.,0.,0.,0.,0.);
#528=(
CONVERSION_BASED_UNIT('degree',#530)
NAMED_UNIT(#527)
PLANE_ANGLE_UNIT()
);
#529=(
NAMED_UNIT(*)
PLANE_ANGLE_UNIT()
SI_UNIT($,.RADIAN.)
);
#530=PLANE_ANGLE_MEASURE_WITH_UNIT(PLANE_ANGLE_MEASURE(0.01745329252),#529);
#531=SHAPE_DEFINITION_REPRESENTATION(#534,#539);
#532=SHAPE_DEFINITION_REPRESENTATION(#535,#540);
#533=SHAPE_DEFINITION_REPRESENTATION(#536,#541);
#534=PRODUCT_DEFINITION_SHAPE('',$,#543);
#535=PRODUCT_DEFINITION_SHAPE('',$,#544);
#536=PRODUCT_DEFINITION_SHAPE('',$,#545);
#537=PRODUCT_DEFINITION_SHAPE($,$,#17);
#538=PRODUCT_DEFINITION_SHAPE($,$,#18);
#539=SHAPE_REPRESENTATION('',(#287),#521);
#540=SHAPE_REPRESENTATION('',(#317),#522);
#541=SHAPE_REPRESENTATION('',(#335,#336,#337),#523);
#542=PRODUCT_DEFINITION_CONTEXT('part definition',#553,'design');
#543=PRODUCT_DEFINITION('4010008015682-Gabelst\X\FCck \X\D8304x3-1x45',
'4010008015682-Gabelst\X\FCck \X\D8304x3-1x45',#546,#542);
#544=PRODUCT_DEFINITION('4018008015668-Auskleidung',
'4018008015668-Auskleidung',#547,#542);
#545=PRODUCT_DEFINITION('4018008015668-Gabelst\X\FCck APS_\X\D8304x3-1
x45\X\B0','4018008015668-Gabelst\X\FCck APS_\X\D8304x3-1x45\X\B0',#548,
#542);
#546=PRODUCT_DEFINITION_FORMATION('',$,#555);
#547=PRODUCT_DEFINITION_FORMATION('',$,#556);
#548=PRODUCT_DEFINITION_FORMATION('',$,#557);
#549=PRODUCT_RELATED_PRODUCT_CATEGORY(
'4010008015682-Gabelst\X\FCck \X\D8304x3-1x45',
'4010008015682-Gabelst\X\FCck \X\D8304x3-1x45',(#555));
#550=PRODUCT_RELATED_PRODUCT_CATEGORY('4018008015668-Auskleidung',
'4018008015668-Auskleidung',(#556));
#551=PRODUCT_RELATED_PRODUCT_CATEGORY(
'4018008015668-Gabelst\X\FCck APS_\X\D8304x3-1x45\X\B0',
'4018008015668-Gabelst\X\FCck APS_\X\D8304x3-1x45\X\B0',(#557));
#552=APPLICATION_PROTOCOL_DEFINITION('international standard',
'automotive_design',2009,#553);
#553=APPLICATION_CONTEXT(
'Core Data for Automotive Mechanical Design Process');
#554=PRODUCT_CONTEXT('part definition',#553,'mechanical');
#555=PRODUCT('4010008015682-Gabelst\X\FCck \X\D8304x3-1x45',
'4010008015682-Gabelst\X\FCck \X\D8304x3-1x45',$,(#554));
#556=PRODUCT('4018008015668-Auskleidung','4018008015668-Auskleidung',$,
(#554));
#557=PRODUCT('4018008015668-Gabelst\X\FCck APS_\X\D8304x3-1x45\X\B0',
'4018008015668-Gabelst\X\FCck APS_\X\D8304x3-1x45\X\B0',$,(#554));
#558=PRESENTATION_STYLE_ASSIGNMENT((#560));
#559=PRESENTATION_STYLE_ASSIGNMENT((#561));
#560=SURFACE_STYLE_USAGE(.BOTH.,#562);
#561=SURFACE_STYLE_USAGE(.BOTH.,#563);
#562=SURFACE_SIDE_STYLE($,(#564));
#563=SURFACE_SIDE_STYLE($,(#565));
#564=SURFACE_STYLE_FILL_AREA(#566);
#565=SURFACE_STYLE_FILL_AREA(#567);
#566=FILL_AREA_STYLE($,(#568));
#567=FILL_AREA_STYLE($,(#569));
#568=FILL_AREA_STYLE_COLOUR($,#570);
#569=FILL_AREA_STYLE_COLOUR($,#571);
#570=COLOUR_RGB('',0.745098039215686,0.737254901960784,0.729411764705882);
#571=COLOUR_RGB('',0.450980392156863,0.580392156862745,0.250980392156863);
ENDSEC;
END-ISO-10303-21;
