ISO-10303-21;
HEADER;
/* Generated by software containing ST-Developer
 * from STEP Tools, Inc. (www.steptools.com) 
 */

FILE_DESCRIPTION(
/* description */ (''),
/* implementation_level */ '2;1');

FILE_NAME(
/* name */ 
'M:\\Oppl_Archiv\\CAD\\APS-Modelle\\Rohre\\4018014015668-APS-Rohr \X\D8
250, L=1m (L=988).stp',
/* time_stamp */ '2014-12-19T10:39:28+01:00',
/* author */ ('Moppl'),
/* organization */ (''),
/* preprocessor_version */ 'ST-DEVELOPER v15.6',
/* originating_system */ 'Autodesk Inventor 2015',
/* authorisation */ '');

FILE_SCHEMA (('AUTOMOTIVE_DESIGN { 1 0 10303 214 3 1 1 }'));
ENDSEC;

DATA;
#10=MECHANICAL_DESIGN_GEOMETRIC_PRESENTATION_REPRESENTATION('',(#24,#23),
#296);
#11=ITEM_DEFINED_TRANSFORMATION($,$,#161,#188);
#12=ITEM_DEFINED_TRANSFORMATION($,$,#178,#189);
#13=(
REPRESENTATION_RELATIONSHIP($,$,#311,#313)
REPRESENTATION_RELATIONSHIP_WITH_TRANSFORMATION(#11)
SHAPE_REPRESENTATION_RELATIONSHIP()
);
#14=(
REPRESENTATION_RELATIONSHIP($,$,#312,#313)
REPRESENTATION_RELATIONSHIP_WITH_TRANSFORMATION(#12)
SHAPE_REPRESENTATION_RELATIONSHIP()
);
#15=CONTEXT_DEPENDENT_SHAPE_REPRESENTATION(#13,#309);
#16=CONTEXT_DEPENDENT_SHAPE_REPRESENTATION(#14,#310);
#17=NEXT_ASSEMBLY_USAGE_OCCURRENCE(
'4010014015702-Rohr NW250, 2mm, L=1m (L=988):1',
'4010014015702-Rohr NW250, 2mm, L=1m (L=988):1',
'4010014015702-Rohr NW250, 2mm, L=1m (L=988):1',#317,#315,
'4010014015702-Rohr NW250, 2mm, L=1m (L=988):1');
#18=NEXT_ASSEMBLY_USAGE_OCCURRENCE('4018014015668-Auskleidung:1',
'4018014015668-Auskleidung:1','4018014015668-Auskleidung:1',#317,#316,
'4018014015668-Auskleidung:1');
#19=SHAPE_REPRESENTATION_RELATIONSHIP('SRR','None',#311,#21);
#20=SHAPE_REPRESENTATION_RELATIONSHIP('SRR','None',#312,#22);
#21=ADVANCED_BREP_SHAPE_REPRESENTATION($,(#25),#293);
#22=ADVANCED_BREP_SHAPE_REPRESENTATION($,(#26),#294);
#23=STYLED_ITEM('',(#330),#25);
#24=STYLED_ITEM('',(#331),#26);
#25=MANIFOLD_SOLID_BREP('Volumenk\X\F6rper1',#159);
#26=MANIFOLD_SOLID_BREP('Volumenk\X\F6rper1',#160);
#27=PLANE('',#165);
#28=PLANE('',#170);
#29=PLANE('',#176);
#30=PLANE('',#177);
#31=PLANE('',#185);
#32=PLANE('',#186);
#33=FACE_BOUND('',#58,.T.);
#34=FACE_BOUND('',#60,.T.);
#35=FACE_BOUND('',#62,.T.);
#36=FACE_BOUND('',#64,.T.);
#37=FACE_BOUND('',#66,.T.);
#38=FACE_BOUND('',#68,.T.);
#39=FACE_BOUND('',#70,.T.);
#40=FACE_BOUND('',#72,.T.);
#41=FACE_BOUND('',#74,.T.);
#42=FACE_BOUND('',#76,.T.);
#43=FACE_BOUND('',#78,.T.);
#44=FACE_BOUND('',#80,.T.);
#45=FACE_OUTER_BOUND('',#57,.T.);
#46=FACE_OUTER_BOUND('',#59,.T.);
#47=FACE_OUTER_BOUND('',#61,.T.);
#48=FACE_OUTER_BOUND('',#63,.T.);
#49=FACE_OUTER_BOUND('',#65,.T.);
#50=FACE_OUTER_BOUND('',#67,.T.);
#51=FACE_OUTER_BOUND('',#69,.T.);
#52=FACE_OUTER_BOUND('',#71,.T.);
#53=FACE_OUTER_BOUND('',#73,.T.);
#54=FACE_OUTER_BOUND('',#75,.T.);
#55=FACE_OUTER_BOUND('',#77,.T.);
#56=FACE_OUTER_BOUND('',#79,.T.);
#57=EDGE_LOOP('',(#117));
#58=EDGE_LOOP('',(#118));
#59=EDGE_LOOP('',(#119));
#60=EDGE_LOOP('',(#120));
#61=EDGE_LOOP('',(#121));
#62=EDGE_LOOP('',(#122));
#63=EDGE_LOOP('',(#123));
#64=EDGE_LOOP('',(#124));
#65=EDGE_LOOP('',(#125));
#66=EDGE_LOOP('',(#126));
#67=EDGE_LOOP('',(#127));
#68=EDGE_LOOP('',(#128));
#69=EDGE_LOOP('',(#129));
#70=EDGE_LOOP('',(#130));
#71=EDGE_LOOP('',(#131));
#72=EDGE_LOOP('',(#132));
#73=EDGE_LOOP('',(#133));
#74=EDGE_LOOP('',(#134));
#75=EDGE_LOOP('',(#135));
#76=EDGE_LOOP('',(#136));
#77=EDGE_LOOP('',(#137));
#78=EDGE_LOOP('',(#138));
#79=EDGE_LOOP('',(#139));
#80=EDGE_LOOP('',(#140));
#81=CIRCLE('',#163,132.5);
#82=CIRCLE('',#164,132.5);
#83=CIRCLE('',#166,126.5);
#84=CIRCLE('',#168,132.5);
#85=CIRCLE('',#169,132.5);
#86=CIRCLE('',#171,126.5);
#87=CIRCLE('',#173,124.5);
#88=CIRCLE('',#174,124.5);
#89=CIRCLE('',#180,114.5);
#90=CIRCLE('',#181,114.5);
#91=CIRCLE('',#183,124.5);
#92=CIRCLE('',#184,124.5);
#93=VERTEX_POINT('',#250);
#94=VERTEX_POINT('',#252);
#95=VERTEX_POINT('',#255);
#96=VERTEX_POINT('',#258);
#97=VERTEX_POINT('',#260);
#98=VERTEX_POINT('',#263);
#99=VERTEX_POINT('',#266);
#100=VERTEX_POINT('',#268);
#101=VERTEX_POINT('',#275);
#102=VERTEX_POINT('',#277);
#103=VERTEX_POINT('',#280);
#104=VERTEX_POINT('',#282);
#105=EDGE_CURVE('',#93,#93,#81,.T.);
#106=EDGE_CURVE('',#94,#94,#82,.T.);
#107=EDGE_CURVE('',#95,#95,#83,.T.);
#108=EDGE_CURVE('',#96,#96,#84,.T.);
#109=EDGE_CURVE('',#97,#97,#85,.T.);
#110=EDGE_CURVE('',#98,#98,#86,.T.);
#111=EDGE_CURVE('',#99,#99,#87,.T.);
#112=EDGE_CURVE('',#100,#100,#88,.T.);
#113=EDGE_CURVE('',#101,#101,#89,.T.);
#114=EDGE_CURVE('',#102,#102,#90,.T.);
#115=EDGE_CURVE('',#103,#103,#91,.T.);
#116=EDGE_CURVE('',#104,#104,#92,.T.);
#117=ORIENTED_EDGE('',*,*,#105,.T.);
#118=ORIENTED_EDGE('',*,*,#106,.T.);
#119=ORIENTED_EDGE('',*,*,#105,.F.);
#120=ORIENTED_EDGE('',*,*,#107,.F.);
#121=ORIENTED_EDGE('',*,*,#108,.T.);
#122=ORIENTED_EDGE('',*,*,#109,.T.);
#123=ORIENTED_EDGE('',*,*,#108,.F.);
#124=ORIENTED_EDGE('',*,*,#110,.F.);
#125=ORIENTED_EDGE('',*,*,#111,.F.);
#126=ORIENTED_EDGE('',*,*,#112,.F.);
#127=ORIENTED_EDGE('',*,*,#107,.T.);
#128=ORIENTED_EDGE('',*,*,#110,.T.);
#129=ORIENTED_EDGE('',*,*,#106,.F.);
#130=ORIENTED_EDGE('',*,*,#112,.T.);
#131=ORIENTED_EDGE('',*,*,#109,.F.);
#132=ORIENTED_EDGE('',*,*,#111,.T.);
#133=ORIENTED_EDGE('',*,*,#113,.F.);
#134=ORIENTED_EDGE('',*,*,#114,.F.);
#135=ORIENTED_EDGE('',*,*,#115,.F.);
#136=ORIENTED_EDGE('',*,*,#116,.T.);
#137=ORIENTED_EDGE('',*,*,#115,.T.);
#138=ORIENTED_EDGE('',*,*,#113,.T.);
#139=ORIENTED_EDGE('',*,*,#116,.F.);
#140=ORIENTED_EDGE('',*,*,#114,.T.);
#141=CYLINDRICAL_SURFACE('',#162,132.5);
#142=CYLINDRICAL_SURFACE('',#167,132.5);
#143=CYLINDRICAL_SURFACE('',#172,124.5);
#144=CYLINDRICAL_SURFACE('',#175,126.5);
#145=CYLINDRICAL_SURFACE('',#179,114.5);
#146=CYLINDRICAL_SURFACE('',#182,124.5);
#147=ADVANCED_FACE('',(#45,#33),#141,.T.);
#148=ADVANCED_FACE('',(#46,#34),#27,.T.);
#149=ADVANCED_FACE('',(#47,#35),#142,.T.);
#150=ADVANCED_FACE('',(#48,#36),#28,.T.);
#151=ADVANCED_FACE('',(#49,#37),#143,.F.);
#152=ADVANCED_FACE('',(#50,#38),#144,.T.);
#153=ADVANCED_FACE('',(#51,#39),#29,.F.);
#154=ADVANCED_FACE('',(#52,#40),#30,.T.);
#155=ADVANCED_FACE('',(#53,#41),#145,.F.);
#156=ADVANCED_FACE('',(#54,#42),#146,.T.);
#157=ADVANCED_FACE('',(#55,#43),#31,.F.);
#158=ADVANCED_FACE('',(#56,#44),#32,.T.);
#159=CLOSED_SHELL('',(#147,#148,#149,#150,#151,#152,#153,#154));
#160=CLOSED_SHELL('',(#155,#156,#157,#158));
#161=AXIS2_PLACEMENT_3D('placement',#248,#190,#191);
#162=AXIS2_PLACEMENT_3D('',#249,#192,#193);
#163=AXIS2_PLACEMENT_3D('',#251,#194,#195);
#164=AXIS2_PLACEMENT_3D('',#253,#196,#197);
#165=AXIS2_PLACEMENT_3D('',#254,#198,#199);
#166=AXIS2_PLACEMENT_3D('',#256,#200,#201);
#167=AXIS2_PLACEMENT_3D('',#257,#202,#203);
#168=AXIS2_PLACEMENT_3D('',#259,#204,#205);
#169=AXIS2_PLACEMENT_3D('',#261,#206,#207);
#170=AXIS2_PLACEMENT_3D('',#262,#208,#209);
#171=AXIS2_PLACEMENT_3D('',#264,#210,#211);
#172=AXIS2_PLACEMENT_3D('',#265,#212,#213);
#173=AXIS2_PLACEMENT_3D('',#267,#214,#215);
#174=AXIS2_PLACEMENT_3D('',#269,#216,#217);
#175=AXIS2_PLACEMENT_3D('',#270,#218,#219);
#176=AXIS2_PLACEMENT_3D('',#271,#220,#221);
#177=AXIS2_PLACEMENT_3D('',#272,#222,#223);
#178=AXIS2_PLACEMENT_3D('placement',#273,#224,#225);
#179=AXIS2_PLACEMENT_3D('',#274,#226,#227);
#180=AXIS2_PLACEMENT_3D('',#276,#228,#229);
#181=AXIS2_PLACEMENT_3D('',#278,#230,#231);
#182=AXIS2_PLACEMENT_3D('',#279,#232,#233);
#183=AXIS2_PLACEMENT_3D('',#281,#234,#235);
#184=AXIS2_PLACEMENT_3D('',#283,#236,#237);
#185=AXIS2_PLACEMENT_3D('',#284,#238,#239);
#186=AXIS2_PLACEMENT_3D('',#285,#240,#241);
#187=AXIS2_PLACEMENT_3D('placement',#286,#242,#243);
#188=AXIS2_PLACEMENT_3D('',#287,#244,#245);
#189=AXIS2_PLACEMENT_3D('',#288,#246,#247);
#190=DIRECTION('axis',(0.,0.,1.));
#191=DIRECTION('refdir',(1.,0.,0.));
#192=DIRECTION('center_axis',(0.,0.,1.));
#193=DIRECTION('ref_axis',(1.,0.,0.));
#194=DIRECTION('center_axis',(0.,0.,-1.));
#195=DIRECTION('ref_axis',(1.,0.,0.));
#196=DIRECTION('center_axis',(0.,0.,1.));
#197=DIRECTION('ref_axis',(1.,0.,0.));
#198=DIRECTION('center_axis',(0.,0.,1.));
#199=DIRECTION('ref_axis',(1.,0.,0.));
#200=DIRECTION('center_axis',(0.,0.,1.));
#201=DIRECTION('ref_axis',(-1.,0.,0.));
#202=DIRECTION('center_axis',(0.,0.,-1.));
#203=DIRECTION('ref_axis',(-1.,0.,0.));
#204=DIRECTION('center_axis',(0.,0.,1.));
#205=DIRECTION('ref_axis',(-1.,0.,0.));
#206=DIRECTION('center_axis',(0.,0.,-1.));
#207=DIRECTION('ref_axis',(-1.,0.,0.));
#208=DIRECTION('center_axis',(0.,0.,-1.));
#209=DIRECTION('ref_axis',(-1.,0.,0.));
#210=DIRECTION('center_axis',(0.,0.,-1.));
#211=DIRECTION('ref_axis',(-1.,0.,0.));
#212=DIRECTION('center_axis',(0.,0.,1.));
#213=DIRECTION('ref_axis',(-1.,0.,0.));
#214=DIRECTION('center_axis',(0.,0.,-1.));
#215=DIRECTION('ref_axis',(-1.,0.,0.));
#216=DIRECTION('center_axis',(0.,0.,1.));
#217=DIRECTION('ref_axis',(-1.,0.,0.));
#218=DIRECTION('center_axis',(0.,0.,1.));
#219=DIRECTION('ref_axis',(-1.,0.,0.));
#220=DIRECTION('center_axis',(0.,0.,1.));
#221=DIRECTION('ref_axis',(1.,0.,0.));
#222=DIRECTION('center_axis',(0.,0.,1.));
#223=DIRECTION('ref_axis',(1.,0.,0.));
#224=DIRECTION('axis',(0.,0.,1.));
#225=DIRECTION('refdir',(1.,0.,0.));
#226=DIRECTION('center_axis',(0.,0.,-1.));
#227=DIRECTION('ref_axis',(-1.,0.,0.));
#228=DIRECTION('center_axis',(0.,0.,1.));
#229=DIRECTION('ref_axis',(-1.,0.,0.));
#230=DIRECTION('center_axis',(0.,0.,-1.));
#231=DIRECTION('ref_axis',(-1.,0.,0.));
#232=DIRECTION('center_axis',(0.,0.,-1.));
#233=DIRECTION('ref_axis',(-1.,0.,0.));
#234=DIRECTION('center_axis',(0.,0.,-1.));
#235=DIRECTION('ref_axis',(-1.,0.,0.));
#236=DIRECTION('center_axis',(0.,0.,-1.));
#237=DIRECTION('ref_axis',(-1.,0.,0.));
#238=DIRECTION('center_axis',(0.,0.,1.));
#239=DIRECTION('ref_axis',(1.,0.,0.));
#240=DIRECTION('center_axis',(0.,0.,1.));
#241=DIRECTION('ref_axis',(1.,0.,0.));
#242=DIRECTION('axis',(0.,0.,1.));
#243=DIRECTION('refdir',(1.,0.,0.));
#244=DIRECTION('',(0.,0.,1.));
#245=DIRECTION('',(1.,0.,0.));
#246=DIRECTION('',(0.,0.,1.));
#247=DIRECTION('',(0.164517628306098,-0.986374142998759,0.));
#248=CARTESIAN_POINT('',(0.,0.,0.));
#249=CARTESIAN_POINT('Origin',(0.,0.,0.));
#250=CARTESIAN_POINT('',(-132.5,1.62265700887024E-14,2.));
#251=CARTESIAN_POINT('Origin',(0.,0.,2.));
#252=CARTESIAN_POINT('',(-132.5,1.62265700887024E-14,0.));
#253=CARTESIAN_POINT('Origin',(0.,0.,0.));
#254=CARTESIAN_POINT('Origin',(0.,0.,2.));
#255=CARTESIAN_POINT('',(-126.5,1.5491782009214E-14,2.));
#256=CARTESIAN_POINT('Origin',(0.,0.,2.));
#257=CARTESIAN_POINT('Origin',(0.,0.,988.));
#258=CARTESIAN_POINT('',(132.5,1.62265700887024E-14,986.));
#259=CARTESIAN_POINT('Origin',(0.,0.,986.));
#260=CARTESIAN_POINT('',(132.5,1.62265700887024E-14,988.));
#261=CARTESIAN_POINT('Origin',(0.,0.,988.));
#262=CARTESIAN_POINT('Origin',(0.,0.,986.));
#263=CARTESIAN_POINT('',(126.5,1.5491782009214E-14,986.));
#264=CARTESIAN_POINT('Origin',(0.,0.,986.));
#265=CARTESIAN_POINT('Origin',(0.,0.,0.));
#266=CARTESIAN_POINT('',(124.5,1.52468526493845E-14,988.));
#267=CARTESIAN_POINT('Origin',(0.,0.,988.));
#268=CARTESIAN_POINT('',(124.5,1.52468526493845E-14,0.));
#269=CARTESIAN_POINT('Origin',(0.,0.,0.));
#270=CARTESIAN_POINT('Origin',(0.,0.,0.));
#271=CARTESIAN_POINT('Origin',(-1.29098183410117E-15,0.,0.));
#272=CARTESIAN_POINT('Origin',(-1.29098183410117E-15,0.,988.));
#273=CARTESIAN_POINT('',(0.,0.,0.));
#274=CARTESIAN_POINT('Origin',(5.70279444559309E-15,-2.33347368065714E-15,
0.));
#275=CARTESIAN_POINT('',(114.5,1.16887321695801E-14,-988.));
#276=CARTESIAN_POINT('Origin',(5.70279444559309E-15,-2.33347368065714E-15,
-988.));
#277=CARTESIAN_POINT('',(114.5,1.16887321695801E-14,0.));
#278=CARTESIAN_POINT('Origin',(5.70279444559309E-15,-2.33347368065714E-15,
0.));
#279=CARTESIAN_POINT('Origin',(5.70279444559309E-15,-2.33347368065714E-15,
0.));
#280=CARTESIAN_POINT('',(124.5,1.29133789687274E-14,-988.));
#281=CARTESIAN_POINT('Origin',(5.70279444559309E-15,-2.33347368065714E-15,
-988.));
#282=CARTESIAN_POINT('',(124.5,1.29133789687274E-14,0.));
#283=CARTESIAN_POINT('Origin',(5.70279444559309E-15,-2.33347368065714E-15,
0.));
#284=CARTESIAN_POINT('Origin',(-4.12488569208601E-15,-2.29130246956093E-15,
-988.));
#285=CARTESIAN_POINT('Origin',(-4.12488569208601E-15,-2.29130246956093E-15,
0.));
#286=CARTESIAN_POINT('',(0.,0.,0.));
#287=CARTESIAN_POINT('',(0.,0.,0.));
#288=CARTESIAN_POINT('',(1.36346788506219E-15,6.00898653962638E-15,988.000000000001));
#289=UNCERTAINTY_MEASURE_WITH_UNIT(LENGTH_MEASURE(0.01),#297,
'DISTANCE_ACCURACY_VALUE',
'Maximum model space distance between geometric entities at asserted c
onnectivities');
#290=UNCERTAINTY_MEASURE_WITH_UNIT(LENGTH_MEASURE(0.01),#297,
'DISTANCE_ACCURACY_VALUE',
'Maximum model space distance between geometric entities at asserted c
onnectivities');
#291=UNCERTAINTY_MEASURE_WITH_UNIT(LENGTH_MEASURE(0.01),#297,
'DISTANCE_ACCURACY_VALUE',
'Maximum model space distance between geometric entities at asserted c
onnectivities');
#292=UNCERTAINTY_MEASURE_WITH_UNIT(LENGTH_MEASURE(1.E-6),#297,
'DISTANCE_ACCURACY_VALUE',
'Maximum model space distance between geometric entities at asserted c
onnectivities');
#293=(
GEOMETRIC_REPRESENTATION_CONTEXT(3)
GLOBAL_UNCERTAINTY_ASSIGNED_CONTEXT((#289))
GLOBAL_UNIT_ASSIGNED_CONTEXT((#297,#300,#298))
REPRESENTATION_CONTEXT('','3D')
);
#294=(
GEOMETRIC_REPRESENTATION_CONTEXT(3)
GLOBAL_UNCERTAINTY_ASSIGNED_CONTEXT((#290))
GLOBAL_UNIT_ASSIGNED_CONTEXT((#297,#300,#298))
REPRESENTATION_CONTEXT('','3D')
);
#295=(
GEOMETRIC_REPRESENTATION_CONTEXT(3)
GLOBAL_UNCERTAINTY_ASSIGNED_CONTEXT((#291))
GLOBAL_UNIT_ASSIGNED_CONTEXT((#297,#300,#298))
REPRESENTATION_CONTEXT('','3D')
);
#296=(
GEOMETRIC_REPRESENTATION_CONTEXT(3)
GLOBAL_UNCERTAINTY_ASSIGNED_CONTEXT((#292))
GLOBAL_UNIT_ASSIGNED_CONTEXT((#297,#300,#298))
REPRESENTATION_CONTEXT('','3D')
);
#297=(
LENGTH_UNIT()
NAMED_UNIT(*)
SI_UNIT(.MILLI.,.METRE.)
);
#298=(
NAMED_UNIT(*)
SI_UNIT($,.STERADIAN.)
SOLID_ANGLE_UNIT()
);
#299=DIMENSIONAL_EXPONENTS(0.,0.,0.,0.,0.,0.,0.);
#300=(
CONVERSION_BASED_UNIT('degree',#302)
NAMED_UNIT(#299)
PLANE_ANGLE_UNIT()
);
#301=(
NAMED_UNIT(*)
PLANE_ANGLE_UNIT()
SI_UNIT($,.RADIAN.)
);
#302=PLANE_ANGLE_MEASURE_WITH_UNIT(PLANE_ANGLE_MEASURE(0.01745329252),#301);
#303=SHAPE_DEFINITION_REPRESENTATION(#306,#311);
#304=SHAPE_DEFINITION_REPRESENTATION(#307,#312);
#305=SHAPE_DEFINITION_REPRESENTATION(#308,#313);
#306=PRODUCT_DEFINITION_SHAPE('',$,#315);
#307=PRODUCT_DEFINITION_SHAPE('',$,#316);
#308=PRODUCT_DEFINITION_SHAPE('',$,#317);
#309=PRODUCT_DEFINITION_SHAPE($,$,#17);
#310=PRODUCT_DEFINITION_SHAPE($,$,#18);
#311=SHAPE_REPRESENTATION('',(#161),#293);
#312=SHAPE_REPRESENTATION('',(#178),#294);
#313=SHAPE_REPRESENTATION('',(#187,#188,#189),#295);
#314=PRODUCT_DEFINITION_CONTEXT('part definition',#325,'design');
#315=PRODUCT_DEFINITION('4010014015702-Rohr NW250, 2mm, L=1m (L=988)',
'4010014015702-Rohr NW250, 2mm, L=1m (L=988)',#318,#314);
#316=PRODUCT_DEFINITION('4018014015668-Auskleidung',
'4018014015668-Auskleidung',#319,#314);
#317=PRODUCT_DEFINITION('4018014015668-APS-Rohr \X\D8250, L=1m (L=988)',
'4018014015668-APS-Rohr \X\D8250, L=1m (L=988)',#320,#314);
#318=PRODUCT_DEFINITION_FORMATION('',$,#327);
#319=PRODUCT_DEFINITION_FORMATION('',$,#328);
#320=PRODUCT_DEFINITION_FORMATION('',$,#329);
#321=PRODUCT_RELATED_PRODUCT_CATEGORY(
'4010014015702-Rohr NW250, 2mm, L=1m (L=988)',
'4010014015702-Rohr NW250, 2mm, L=1m (L=988)',(#327));
#322=PRODUCT_RELATED_PRODUCT_CATEGORY('4018014015668-Auskleidung',
'4018014015668-Auskleidung',(#328));
#323=PRODUCT_RELATED_PRODUCT_CATEGORY(
'4018014015668-APS-Rohr \X\D8250, L=1m (L=988)',
'4018014015668-APS-Rohr \X\D8250, L=1m (L=988)',(#329));
#324=APPLICATION_PROTOCOL_DEFINITION('international standard',
'automotive_design',2009,#325);
#325=APPLICATION_CONTEXT(
'Core Data for Automotive Mechanical Design Process');
#326=PRODUCT_CONTEXT('part definition',#325,'mechanical');
#327=PRODUCT('4010014015702-Rohr NW250, 2mm, L=1m (L=988)',
'4010014015702-Rohr NW250, 2mm, L=1m (L=988)',$,(#326));
#328=PRODUCT('4018014015668-Auskleidung','4018014015668-Auskleidung',$,
(#326));
#329=PRODUCT('4018014015668-APS-Rohr \X\D8250, L=1m (L=988)',
'4018014015668-APS-Rohr \X\D8250, L=1m (L=988)',$,(#326));
#330=PRESENTATION_STYLE_ASSIGNMENT((#332));
#331=PRESENTATION_STYLE_ASSIGNMENT((#333));
#332=SURFACE_STYLE_USAGE(.BOTH.,#334);
#333=SURFACE_STYLE_USAGE(.BOTH.,#335);
#334=SURFACE_SIDE_STYLE($,(#336));
#335=SURFACE_SIDE_STYLE($,(#337));
#336=SURFACE_STYLE_FILL_AREA(#338);
#337=SURFACE_STYLE_FILL_AREA(#339);
#338=FILL_AREA_STYLE($,(#340));
#339=FILL_AREA_STYLE($,(#341));
#340=FILL_AREA_STYLE_COLOUR($,#342);
#341=FILL_AREA_STYLE_COLOUR($,#343);
#342=COLOUR_RGB('',0.749019607843137,0.749019607843137,0.749019607843137);
#343=COLOUR_RGB('',0.450980392156863,0.580392156862745,0.250980392156863);
ENDSEC;
END-ISO-10303-21;
